Oops, an error
Loading. Please wait.

Hemiola Tab

43 views 1 this week
no commentswrite comment
1 2 3 4 5
3 more votes to show rating
add to favorites
launch autoscroll
font size
0
reset
how to read this tab
guitar tuner
×
Best way to learn
"Hemiola"
Autoscroll
slow
fast
+/-
esc
set tempo
stop
Author
Difficulty
Tuning
intermediate
B F# B E G# C#
-------------------------------------------------------------------------------
                            Hemiola - Losing September
-------------------------------------------------------------------------------

Losing September
"Hemiola"
ALBUM - There Will Be Casualties
2010 Fidelity Entertainment

Website: www.losingseptember.com
Facebook: www.facebook.com/musicforlosers
YouTube: (Official Music Video) - https://www.youtube.com/watch?v=b1HO5mc6on0 
Tabbed by: RiseOfRock9

                      

************************************

| /   slide up
| \   slide down
| h   hammer-on
| p   pull-off
| v   vibrato
| +   harmonic
| *  pinch harmonic
|(5)  ghost note, hold out
| x   Mute note
| b   Bend
| pb  Pre-bend
| br  Bend release
| pbr Pre-bend release
| brb Bend release bend

************************************



Tuning: Drop B
B-F#-B-E-G#-C#

Guitar 1 is the Rhythm guitar.
Guitar 2 is the Lead guitar. 


|INTRO 
  |Guitar 2   5/4
C#|--------------------------------|--------------------------------|
G#|--------------------------------|--------------------------------|
E |--------------------------------|--------------------------------|
B |---------10----10----9----10----|---------10----10----9----10----|
F#|-0h10h12----12----12----12---12-|-0h10h12----12----12----12---12-|
B |--------------------------------|--------------------------------| 
  |P.M.  


|Guitar 2
|--------------------------------|------------------------------|
|--------------------------------|------------------------------|
|--------------------------------|------------------------------|
|---------10----10----9----10----|-12----12----10----9----10----|  
|-0h10h12----12----12----12---12-|----12----12----12---12----12-|
|--------------------------------|------------------------------|
|P.M. 



|INTRO CONTINUED
|Guitar 1                                                                                
|-------------------------------------|---------------------------------|
|-------------------------------------|---------------------------------|
|-------------------------------------|---------------------------------|        
|-12----------------------------------|-10------------------------------|
|-12----------------------------------|-10------------------------------|
|-12----------------------------------|-10------------------------------|
| Let ring
|
|Guitar 2   5/4
|-----------------------------|--------------------------------|
|-----------------------------|--------------------------------|
|-----------------------------|--------------------------------|
|---------10----10----9----10-|---------10----10----9----10----|
|-0h10h12----12----12----12---|-0h10h12----12----12---12----12-|
|-----------------------------|--------------------------------|
|P.M.  




|Guitar 1   6/4                                      2/4                       
|------------|-------------------------------------|------------|
|------------|-------------------------------------|------------|
|------------|-------------------------------------|------------|        
|-(10)-------|---8---------------------------------|-10-----9---|
|-(10)-------|---8---------------------------------|--8-----7---|
|-(10)-------|---8---------------------------------|------------|
|Let ring
|
|Guitar 2   5/4
|--------------------------------|------------------------------|
|--------------------------------|------------------------------|
|--------------------------------|------------------------------|
|---------10----10----9----10----|-12----12----10----9----10----|  
|-0h10h12----12----12----12---12-|----12----12----12---12----12-|
|--------------------------------|------------------------------|
|P.M. 




|VERSE  1 
|Guitar 1   6/4                                                                                  
|-------------------------------------|---------------------------  
|-------------------------------------|---------------------------  
|-------------------------------------|---------------------------        
|-------------------------------------|---------------------------
|-12-12-12-12-12-12-12-12-12-12-12-12-|-10-10-10-10-10-10-10-10---
|-12-12-12-12-12-12-12-12-12-12-12-12-|-10-10-10-10-10-10-10-10---... continued on next part
|P.M.
|
|
|Guitar 2   5/4
|--------------------------------|--------------------------------|
|--------------------------------|--------------------------------|
|--------------------------------|--------------------------------|
|---------10----10----9----10----|---------10----10----9----10----|
|-0h10h12----12----12---12----12-|-0h10h12----12----12----12---12-|
|--------------------------------|--------------------------------|
|P.M. 



|VERSE  1
|Guitar 1                                        2/4  
|-------------|---------------------------------|---------------|  
|-------------|---------------------------------|---------------|  
|-------------|---------------------------------|---------------|        
|-10-10-10-10-|---------------------------------|-10-10--9--9---|
|-10-10-10-10-|-8-8-8-8-8-8-8-8-8-8-8-8-8-8-8-8-|--8--8--7--7---|
|-10-10-10-10-|-8-8-8-8-8-8-8-8-8-8-8-8-8-8-8-8-|---------------|
|P.M.         
|
|--------------------------------|------------------------------|
|--------------------------------|------------------------------|
|--------------------------------|------------------------------|
|---------10----10----9----10----|-12----12----10----9----10----|  REPEAT FROM START OF VERSE
|-0h10h12----12----12----12---12-|----12----12----12---12----12-|
|--------------------------------|------------------------------|
|P.M. 


|VERSE  1
|Guitar 1    6/4                                                                                  
|-------------------------------------|---------------------------  
|-------------------------------------|---------------------------  
|-------------------------------------|---------------------------        
|-------------------------------------|---------------------------
|-12-12-12-12-12-12-12-12-12-12-12-12-|-10-10-10-10-10-10-10-10---
|-12-12-12-12-12-12-12-12-12-12-12-12-|-10-10-10-10-10-10-10-10---... continued on next part
|P.M.
|
|
|Guitar 2   5/4
|--------------------------------|--------------------------------|
|--------------------------------|--------------------------------|
|--------------------------------|--------------------------------|
|---------10----10----9----10----|---------10----10----9----10----|
|-0h10h12----12----12---12----12-|-0h10h12----12----12----12---12-|
|--------------------------------|--------------------------------|
|P.M. 



|VERSE  1
|Guitar 1   6/4                                     2/4  
|-------------|------------------------------------|--------------|  
|-------------|------------------------------------|--------------|  
|-------------|------------------------------------|--------------|        
|-10-10-10-10-|------------------------------------|-10-10--9--9--|
|-10-10-10-10-|-8--8--8--8--8--8--8--8--8--8--8--8-|--8--8--7--7--|
|-10-10-10-10-|-8--8--8--8--8--8--8--8--8--8--8--8-|--------------|
|P.M.         
|
|Guitar 2   5/4
|--------------------------------|--------------------------------|
|--------------------------------|--------------------------------|
|--------------------------------|--------------------------------|
|---------10----10----9----10----|-12----12----10-----9h10--10*---|  
|-0h10h12----12----12----12---12-|----12----12-----12-------------|
|--------------------------------|--------------------------------|
|P.M. 



|VERSE  1
|Guitar 1   6/4                                                                                  
|-------------------------------------|---------------------------  
|-------------------------------------|---------------------------  
|-------------------------------------|---------------------------        
|-------------------------------------|---------------------------
|-12-12-12-12-12-12-12-12-12-12-12-12-|-10-10-10-10-10-10-10-10---
|-12-12-12-12-12-12-12-12-12-12-12-12-|-10-10-10-10-10-10-10-10---... continued on next part
|P.M.
|
|
|Guitar 2   5/4
|--------------------------------|--------------------------------|
|--------------------------------|--------------------------------|
|--------------------------------|--------------------------------|
|---------10----10----9----10----|---------10----10----9----10----|
|-0h10h12----12----12---12----12-|-0h10h12----12----12----12---12-|
|--------------------------------|--------------------------------|
|P.M. 


|VERSE  1 Continued
|Guitar 1   6/4                                   
|---------------|--------------------------------------|  
|---------------|--------------------------------------|  
|---------------|--------------------------------------|        
|--10-10-10-10--|--------------------------------------|
|--10-10-10-10--|--8--8--8--8--8--8--8--8--8--8--8--8--|
|--10-10-10-10--|--8--8--8--8--8--8--8--8--8--8--8--8--|
|P.M.         
|
|Guitar 2   5/4
|--------------------------------|----------------------|
|--------------------------------|----------------------|
|--------------------------------|----------------------|
|---------10----10----9----10----|-12---12----10---10---|  
|-0h10h12----12----12----12---12-|----12---12----12--12-|
|--------------------------------|----------------------|
|P.M. 




******************************************************************************



|CHORUS 1 
|Guitar 1 6/8
|---------------|---------------|--------------------|------------------|
|---------------|---------------|--------------------|------------------|
|---------------|---------------|--------------------|------------------|     
|-0-----0-0-0-0-|-8-----8-8-8-8-|-10-----10-10-10-10-|-5----5----3------|
|-0-----0-0-0-0-|-8-----8-8-8-8-|-10-----10-10-10-10-|-5----5----3------|
|-0-----0-0-0-0-|-8-----8-8-8-8-|-10-----10-10-10-10-|-5----5----3------|
|
|
|Guitar 2 6/8
|---------------|---------------|--------------------|------------------|
|---------------|---------------|--------------------|------------------|
|-7-----7-7-7-7-|-10---10101010-|-12-----12-12-12-12-|-10---10---9------|       
|---------------|---------------|--------------------|------------------|
|-5-----5-5-5-5-|--8----8-8-8-8-|-10-----10-10-10-10-|--8----8---7------|
|---------------|---------------|--------------------|------------------|




|CHORUS 1
|Guitar 1 6/8
|---------------|---------------|--------------------|----------------------|
|---------------|---------------|--------------------|----------------------|
|---------------|---------------|--------------------|----------------------|     
|-0-----0-0-0-0-|-8-----8-8-8-8-|-10-----10-10-10-10-|-5-----5------3-------|
|-0-----0-0-0-0-|-8-----8-8-8-8-|-10-----10-10-10-10-|-5-----5------3-------|
|-0-----0-0-0-0-|-8-----8-8-8-8-|-10-----10-10-10-10-|-5-----5------3-------|
|
|
|Guitar 2 6/8
|---------------|---------------|--------------------|---------------151312-|
|---------------|---------------|--------------------|--------151311--------|
|-7-----7-7-7-7-|-10---10101010-|-12-----12-12-12-12-|-141210---------------| 
|---------------|---------------|--------------------|----------------------|
|-5-----5-5-5-5-|--8----8-8-8-8-|-10-----10-10-10-10-|----------------------|
|---------------|---------------|--------------------|----------------------|





|CHORUS 1
|Guitar 1
|-------------------------------|-------------------------------|
|-------------------------------|-------------------------------|
|-------------------------------|-------------------------------|       
|-------------------------------|-------------------------------|
|----0----0----0---0---0----0---|--8-----8----8----8----8----8--|
|----0----0----0---0---0----0---|--8-----8----8----8----8----8--|
|
|
|Guitar 2 
|-T17p13p10-T17p13p10-T17p13p10-|-T18p13p10-T18p13p10-T18p13p10-|
|-------------------------------|-------------------------------|
|-------------------------------|-------------------------------|       
|-------------------------------|-------------------------------|
|-------------------------------|-------------------------------|
|-------------------------------|-------------------------------|




|CHORUS 1
|Guitar 1
|-------------------------------|----------------------------|
|-------------------------------|----------------------------|
|-------------------------------|----------------------------|       
|-------------------------------|----------------------------|
|---10----10----10----10----10--|--5---5---5---5---3----3----|
|---10----10----10----10----10--|--5---5---5---5---3----3----|
|
|
|Guitar 2 
|-T15p13p10-T15p13p10-T15p13p10-|--151312--------------------|
|-------------------------------|----------151311------------|
|-------------------------------|-----------------141210-----|        
|-------------------------------|----------------------------|
|-------------------------------|----------------------------|
|-------------------------------|----------------------------|




******************************************************************************



|VERSE 2
|Guitar 1   6/4                                                                                  
|-------------------------------------|---------------------------  
|-------------------------------------|---------------------------  
|-------------------------------------|---------------------------        
|-------------------------------------|---------------------------
|-12-12-12-12-12-12-12-12-12-12-12-12-|-10-10-10-10-10-10-10-10---
|-12-12-12-12-12-12-12-12-12-12-12-12-|-10-10-10-10-10-10-10-10---... continued on next part
|P.M.
|
|
|Guitar 2   5/4
|--------------------------------|--------------------------------|
|--------------------------------|--------------------------------|
|--------------------------------|--------------------------------|
|---------10----10----9----10----|---------10----10----9----10----|
|-0h10h12----12----12---12----12-|-0h10h12----12----12----12---12-|
|--------------------------------|--------------------------------|
|P.M. 



|VERSE 2
|Guitar 1   6/4                                      2/4  
|-------------|-------------------------------------|--------------|  
|-------------|-------------------------------------|--------------|  
|-------------|-------------------------------------|--------------|        
|-10-10-10-10-|-------------------------------------|-10-10--9--9--|
|-10-10-10-10-|-8--8--8--8--8--8--8--8--8--8--8--8--|--8-8---7--7--|
|-10-10-10-10-|-8--8--8--8--8--8--8--8--8--8--8--8--|--------------|
|P.M.         
|
|Guitar 2   5/4
|--------------------------------|---------------------------------|
|--------------------------------|---------------------------------|
|--------------------------------|---------------------------------|
|---------10----10----9----10----|-12----12----10----9-----10------|  
|-0h10h12----12----12----12---12-|----12----12----12----12----12---|
|--------------------------------|---------------------------------|
|P.M. 




|VERSE 2
|Guitar 1   6/4                                                                                  
|-------------------------------------|---------------------------  
|-------------------------------------|---------------------------  
|-------------------------------------|---------------------------        
|-------------------------------------|---------------------------
|-12-12-12-12-12-12-12-12-12-12-12-12-|-10-10-10-10-10-10-10-10---
|-12-12-12-12-12-12-12-12-12-12-12-12-|-10-10-10-10-10-10-10-10---... continued on next part
|P.M.
|
|
|Guitar 2   5/4
|--------------------------------|--------------------------------|
|--------------------------------|--------------------------------|
|--------------------------------|--------------------------------|
|---------10----10----9----10----|---------10----10----9----10----|
|-0h10h12----12----12---12----12-|-0h10h12----12----12----12---12-|
|--------------------------------|--------------------------------|
|P.M. 





|VERSE 2 Continued
|Guitar 1   6/4                                   
|---------------|--------------------------------------|  
|---------------|--------------------------------------|  
|---------------|--------------------------------------|        
|--10-10-10-10--|--------------------------------------|
|--10-10-10-10--|--8--8--8--8--8--8--8--8--8--8--8--8--|
|--10-10-10-10--|--8--8--8--8--8--8--8--8--8--8--8--8--|
|P.M.         
|
|Guitar 2   5/4
|--------------------------------|---------------------|
|--------------------------------|---------------------|
|--------------------------------|---------------------|
|---------10----10----9----10----|-12-----12----10-----|  
|-0h10h12----12----12----12---12-|-----12----12-----12-|
|--------------------------------|---------------------|
|P.M. 




******************************************************************************



|CHORUS 2
|Guitar 1 6/8
|---------------|---------------|--------------------|------------------|
|---------------|---------------|--------------------|------------------|
|---------------|---------------|--------------------|------------------|     
|-0-----0-0-0-0-|-8-----8-8-8-8-|-10-----10-10-10-10-|-5----5----3------|
|-0-----0-0-0-0-|-8-----8-8-8-8-|-10-----10-10-10-10-|-5----5----3------|
|-0-----0-0-0-0-|-8-----8-8-8-8-|-10-----10-10-10-10-|-5----5----3------|
|
|
|Guitar 2 6/8
|---------------|---------------|--------------------|------------------|
|---------------|---------------|--------------------|------------------|
|-7-----7-7-7-7-|-10---10101010-|-12-----12-12-12-12-|-10---10---9------|       
|---------------|---------------|--------------------|------------------|
|-5-----5-5-5-5-|--8----8-8-8-8-|-10-----10-10-10-10-|--8----8---7------|
|---------------|---------------|--------------------|------------------|




|CHORUS 2
|Guitar 1 6/8
|---------------|---------------|--------------------|----------------------|
|---------------|---------------|--------------------|----------------------|
|---------------|---------------|--------------------|----------------------|     
|-0-----0-0-0-0-|-8-----8-8-8-8-|-10-----10-10-10-10-|-5-----5------3-------|
|-0-----0-0-0-0-|-8-----8-8-8-8-|-10-----10-10-10-10-|-5-----5------3-------|
|-0-----0-0-0-0-|-8-----8-8-8-8-|-10-----10-10-10-10-|-5-----5------3-------|
|
|
|Guitar 2 6/8
|---------------|---------------|--------------------|---------------151312-|
|---------------|---------------|--------------------|--------151311--------|
|-7-----7-7-7-7-|-10---10101010-|-12-----12-12-12-12-|-141210---------------| 
|---------------|---------------|--------------------|----------------------|
|-5-----5-5-5-5-|--8----8-8-8-8-|-10-----10-10-10-10-|----------------------|
|---------------|---------------|--------------------|----------------------|





|CHORUS 2
|Guitar 1
|-------------------------------|-------------------------------|
|-------------------------------|-------------------------------|
|-------------------------------|-------------------------------|       
|-------------------------------|-------------------------------|
|----0----0----0---0---0----0---|--8-----8----8----8----8----8--|
|----0----0----0---0---0----0---|--8-----8----8----8----8----8--|
|
|
|Guitar 2 
|-T17p13p10-T17p13p10-T17p13p10-|-T18p13p10-T18p13p10-T18p13p10-|
|-------------------------------|-------------------------------|
|-------------------------------|-------------------------------|       
|-------------------------------|-------------------------------|
|-------------------------------|-------------------------------|
|-------------------------------|-------------------------------|




|CHORUS 2
|Guitar 1
|-------------------------------|----------------------------|
|-------------------------------|----------------------------|
|-------------------------------|----------------------------|       
|-------------------------------|----------------------------|
|---10----10----10----10----10--|--5---5---5---5---3----3----|
|---10----10----10----10----10--|--5---5---5---5---3----3----|
|
|
|Guitar 2 
|-T15p13p10-T15p13p10-T15p13p10-|--151312--------------------|
|-------------------------------|----------151311------------|
|-------------------------------|-----------------141210-----|        
|-------------------------------|----------------------------|
|-------------------------------|----------------------------|
|-------------------------------|----------------------------|



******************************************************************************


|SOLO
|Guitar 1 
|-------------------------|-------------------------------|
|-------------------------|-------------------------------|
|-------------------------|-------------------------------|
|-------------------------|-------------------------------|    
|-------------------------|-------------------------------|
|-0-0-0-0-0-0-8-8-8-8-8-8-|-10-10-10-10-10-10-5-5-5-5-3-3-| 
|
|
|Guitar 2 
|-------------------------|-------------------------------|
|-------------------------|-------------------------------|
|-10v-----9--10v-----12---|-10/12v---------12---14/151412-|
|-------------------------|-------------------------------|
|-------------------------|-------------------------------|
|-------------------------|-------------------------------|



|SOLO
|Guitar 1 
|-------------------------|-------------------------------|
|-------------------------|-------------------------------|
|-------------------------|-------------------------------|
|-------------------------|-------------------------------|    
|-------------------------|-------------------------------|
|-0-0-0-0-0-0-8-8-8-8-8-8-|-10-10-10-10-10-10-5-5-5-5-3-3-| 
|
|
|Guitar 2
|-------------------------|-------------------------------|
|-------------------------|-------------------------------|
|-10v------9--10v-----12--|-10/12v-------12-----14/151415-|
|-------------------------|-------------------------------|
|-------------------------|-------------------------------|
|-------------------------|-------------------------------|





|SOLO
|Guitar 1 
|-------------------------|-------------------------------|
|-------------------------|-------------------------------|
|-------------------------|-------------------------------|
|-------------------------|-------------------------------|    
|-------------------------|-------------------------------|
|-0-0-0-0-0-0-8-8-8-8-8-8-|-10-10-10-10-10-10-5-5-5-5-3-3-| 
|
|
|Guitar 2 
|-------------------------|-------------------------------|
|----------15---------15--|-17h18-17-15--------17v----18--|
|-15/17v-------17v--------|-------------------------------|
|-------------------------|-------------------------------|       
|-------------------------|-------------------------------|
|-------------------------|-------------------------------|




|SOLO
|Guitar 1 
|-------------------------|-------------------------------|
|-------------------------|-------------------------------|
|-------------------------|-------------------------------|
|-------------------------|-------------------------------|    
|-------------------------|-------------------------------|
|-0-0-0-0-0-0-8-8-8-8-8-8-|-10-10-10-10-10-10-5-5-5-5-3-3-| 
|
|
|Guitar 2 
|--------17-17h18h20-18-17|-18h20h22-20-18----20h22-201817-|       
|-18/20v------------------|--------------------------------|
|-------------------------|--------------------------------|
|-------------------------|--------------------------------|       
|-------------------------|--------------------------------|
|-------------------------|--------------------------------|



******************************************************************************



|BREAK DOWN
|Guitar 1  5/4
|------------------|-----------------|------------------|-----------------|
|------------------|-----------------|------------------|-----------------|
|------------------|-----------------|------------------|-----------------|
|----------10--12--|----------10--9--|------------7--5--|-33--3--3--5--7--|       
|-----------8--10--|-----------8--7--|------------5--3--|-11--1--1--3--5--|    
|-00--0--0---------|-00--0--0--------|-00--0---0--------|-----------------| 
|Let ring
|
|
|Guitar 2    5/4
|------------------|-----------------|------------------|------------------|
|------------------|-----------------|------------------|------------------|
|----------17--19--|---------15--14--|-----------14--12-|-1010-10-10-12-14-|
|------------------|-----------------|------------------|------------------|       
|----------15--17--|---------13--12--|-----------12--10-|--8-8--8--8-10-12-|       
|-00--0--0---------|-00--0--0--------|-00--0---0--------|------------------|  
|Let ring






|Guitar 1  5/4
|------------------|-----------------|------------------|-----------------|
|------------------|-----------------|------------------|-----------------|
|------------------|-----------------|------------------|-----------------|
|----------10--12--|----------10--9--|------------7--5--|-33--3--3--5--7--|       
|-----------8--10--|-----------8--7--|------------5--3--|-11--1--1--3--5--|    
|-00--0--0---------|-00--0--0--------|-00--0---0--------|-----------------| 
PM..  .  .           ..  .  .          ..  .   .  
|
|
|Guitar 2    5/4
|------------------|-----------------|------------------|------------------|
|------------------|-----------------|------------------|------------------|
|----------17--19--|---------15--14--|-----------14--12-|-1010-10-10-12-14-|
|------------------|-----------------|------------------|------------------|       
|----------15--17--|---------13--12--|-----------12--10-|--8-8--8--8-10-12-|       
|-00--0--0---------|-00--0--0--------|-00--0---0--------|------------------| 
PM..  .  .           ..  .  .          ..  .   .  




|Guitar 1  5/4
|------------------|-----------------|------------------|-----------------|
|------------------|-----------------|------------------|-----------------|
|------------------|-----------------|------------------|-----------------|
|----------10--12--|----------10--9--|------------7--5--|-33--3--3--5--7--|       
|-----------8--10--|-----------8--7--|------------5--3--|-11--1--1--3--5--|    
|-00--0--0---------|-00--0--0--------|-00--0---0--------|-----------------| 
PM..  .  .           ..  .  .          ..  .   .  
|
|
|Guitar 2   5/4
|------------------|-----------------|------------------|------------------|
|------------------|-----------------|------------------|------------------|
|----------17--19--|---------15--14--|-----------14--12-|-1010-10-10-12-14-|
|------------------|-----------------|------------------|------------------|       
|----------15--17--|---------13--12--|-----------12--10-|--8-8--8--8-10-12-|       
|-00--0--0---------|-00--0--0--------|-00--0---0--------|------------------| 
PM..  .  .           ..  .  .          ..  .   .  



******************************************************************************




|RHYTHM GUITAR CUTS OUT AND BASS PLAYS THE CELLO PART
|BASS PART 6/8                                                                                    
|-----------------------------------------|--------------------------------|
|-----------------------------------------|--------------------------------|
|-----------------------------------------|--------------------------------|
|-----------------------------------------|--------------------------------|
|-5---------------------------------------|-3------------------------------|
|-----------------------------------------|--------------------------------|
|
|Guitar 2   5/4
|--------------------------------|--------------------------------|
|--------------------------------|--------------------------------|
|--------------------------------|--------------------------------|
|---------10----10----9----10----|---------10----10----9----10----|
|-0h10h12----12----12---12----12-|-0h10h12----12----12----12---12-|
|--------------------------------|--------------------------------|
|P.M. 


|VERSE 2
|Bass PART 6/4                                   
|--------------|--------------------------------------|  
|--------------|--------------------------------------|  
|--------------|--------------------------------------|        
|--------------|--------------------------------------|
|-(3)----------|-1------------------------------------|
|--------------|--------------------------------------|
|P.M.         
|
|Guitar 2  5/4
|--------------------------------|--------------------|
|--------------------------------|--------------------|
|--------------------------------|--------------------|
|---------10----10----9----10----|-12----12----10-----|  
|-0h10h12----12----12----12---12-|----12----12----12--|
|--------------------------------|--------------------|
|P.M. 




******************************************************************************



|CHORUS 3
|Guitar 1 6/8
|---------------|---------------|--------------------|------------------|
|---------------|---------------|--------------------|------------------|
|---------------|---------------|--------------------|------------------|     
|-0-----0-0-0-0-|-8-----8-8-8-8-|-10-----10-10-10-10-|-5----5----3------|
|-0-----0-0-0-0-|-8-----8-8-8-8-|-10-----10-10-10-10-|-5----5----3------|
|-0-----0-0-0-0-|-8-----8-8-8-8-|-10-----10-10-10-10-|-5----5----3------|
|
|
|Guitar 2 6/8
|---------------|---------------|--------------------|------------------|
|---------------|---------------|--------------------|------------------|
|-7-----7-7-7-7-|-10---10101010-|-12-----12-12-12-12-|-10---10---9------|       
|---------------|---------------|--------------------|------------------|
|-5-----5-5-5-5-|--8----8-8-8-8-|-10-----10-10-10-10-|--8----8---7------|
|---------------|---------------|--------------------|------------------|



|CHORUS 3
|Guitar 1 6/8
|---------------|---------------|--------------------|----------------------|
|---------------|---------------|--------------------|----------------------|
|---------------|---------------|--------------------|----------------------|     
|-0-----0-0-0-0-|-8-----8-8-8-8-|-10-----10-10-10-10-|-5-----5------3-------|
|-0-----0-0-0-0-|-8-----8-8-8-8-|-10-----10-10-10-10-|-5-----5------3-------|
|-0-----0-0-0-0-|-8-----8-8-8-8-|-10-----10-10-10-10-|-5-----5------3-------|
|
|
|Guitar 2 6/8
|---------------|---------------|--------------------|---------------151312-|
|---------------|---------------|--------------------|--------151311--------|
|-7-----7-7-7-7-|-10---10101010-|-12-----12-12-12-12-|-141210---------------| 
|---------------|---------------|--------------------|----------------------|
|-5-----5-5-5-5-|--8----8-8-8-8-|-10-----10-10-10-10-|----------------------|
|---------------|---------------|--------------------|----------------------|





|CHORUS 3
|Guitar 1
|-------------------------------|-------------------------------|
|-------------------------------|-------------------------------|
|-------------------------------|-------------------------------|       
|-------------------------------|-------------------------------|
|----0----0----0---0---0----0---|--8-----8----8----8----8----8--|
|----0----0----0---0---0----0---|--8-----8----8----8----8----8--|
|
|
|Guitar 2
|-T17p13p10-T17p13p10-T17p13p10-|-T18p13p10-T18p13p10-T18p13p10-|
|-------------------------------|-------------------------------|
|-------------------------------|-------------------------------|       
|-------------------------------|-------------------------------|
|-------------------------------|-------------------------------|
|-------------------------------|-------------------------------|




|CHORUS 3
|Guitar 1
|-------------------------------|----------------------------|
|-------------------------------|----------------------------|
|-------------------------------|----------------------------|       
|-------------------------------|----------------------------|
|---10----10----10----10----10--|--5---5---5---5---3----3----|
|---10----10----10----10----10--|--5---5---5---5---3----3----|
|
|
|Guitar 2 
|-T15p13p10-T15p13p10-T15p13p10-|--151312--------------------|
|-------------------------------|----------151311------------|
|-------------------------------|-----------------141210-----|        
|-------------------------------|----------------------------|
|-------------------------------|----------------------------|
|-------------------------------|----------------------------|




******************************************************************************




|OURTO BREAK DOWN
|Guitar 1  5/4
|------------------|-----------------|------------------|-----------------|
|------------------|-----------------|------------------|-----------------|
|------------------|-----------------|------------------|-----------------|
|----------10--12--|----------10--9--|------------7--5--|-33--3--3--5--7--|       
|-----------8--10--|-----------8--7--|------------5--3--|-11--1--1--3--5--|    
|-00--0--0---------|-00--0--0--------|-00--0---0--------|-----------------| 
|Let ring
|
|
|Guitar 2    5/4
|------------------|-----------------|------------------|------------------|
|------------------|-----------------|------------------|------------------|
|----------17--19--|---------15--14--|-----------14--12-|-1010-10-10-12-14-|
|------------------|-----------------|------------------|------------------|       
|----------15--17--|---------13--12--|-----------12--10-|--8-8--8--8-10-12-|       
|-00--0--0---------|-00--0--0--------|-00--0---0--------|------------------| 
|Let ring





|Guitar 1  5/4
|------------------|-----------------|------------------|-----------------|
|------------------|-----------------|------------------|-----------------|
|------------------|-----------------|------------------|-----------------|
|----------10--12--|----------10--9--|------------7--5--|-33--3--3--5--7--|       
|-----------8--10--|-----------8--7--|------------5--3--|-11--1--1--3--5--|    
|-00--0--0---------|-00--0--0--------|-00--0---0--------|-----------------| 
PM..  .  .           ..  .  .          ..  .   .  
|
|Guitar 2    5/4
|------------------|-----------------|------------------|------------------|
|------------------|-----------------|------------------|------------------|
|----------17--19--|---------15--14--|-----------14--12-|-1010-10-10-12-14-|
|------------------|-----------------|------------------|------------------|       
|----------15--17--|---------13--12--|-----------12--10-|--8-8--8--8-10-12-|       
|-00--0--0---------|-00--0--0--------|-00--0---0--------|------------------| 
PM..  .  .           ..  .  .          ..  .   .   





******************************************************************************





|OUTRO
|Guitar 1                                                                                          
|-----------------------------------------------------------------| 
|-----------------------------------------------------------------| 
|-----------------------------------------------------------------|        
|-0---------------------------------(0)---------------------------|
|-0---------------------------------(0)---------------------------|
|-0---------------------------------(0)---------------------------|
|LET RING OUT
|
|Guitar 2  5/4
|--------------------------------|--------------------------------|
|--------------------------------|--------------------------------|
|--------------------------------|--------------------------------|
|---------10----10----9----10----|---------10----10----9----10----|  
|-0h10h12----12----12----12---12-|-0h10h12----12----12----12---12-|
|--------------------------------|--------------------------------|
|P.M. 





|Guitar 1                                                                                          
|-----------------------------------------------------------------| 
|-----------------------------------------------------------------| 
|-----------------------------------------------------------------|        
|-----------------(0)---------------------------------------------|
|-----------------(0)---------------------------------------------|
|-----------------(0)---------------------------------------------|
|             Fades out......     
|
|
|Guitar 2   5/4
|--------------------------------|------------------------------|
|--------------------------------|------------------------------|
|--------------------------------|------------------------------|
|---------10----10----9----10----|-12----12----10----9----10----|  
|-0h10h12----12----12----12---12-|----12----12----12---12----12-|
|--------------------------------|------------------------------|
|P.M.         Fades out......     
|                                                                               
|
|
|END




Suggest correction
Give kudos to tab author, rate the tab!
1 2 3 4 5
comments
print report bad tab
guest
You may want to rate the tab now too:
select rating
Wanna post a correction for this tab? Suggest correction