Oops, an error
Loading. Please wait.

Let Them Tremble Tab

21 views 6 this week
no commentswrite comment
1 2 3 4 5
3 more votes to show rating
add to favorites
launch autoscroll
font size
0
reset
how to read this tab
guitar tuner
×
Best way to learn
"Let Them Tremble"
Autoscroll
slow
fast
+/-
esc
set tempo
stop
Author
Difficulty
Tuning
  follow
advanced
B F# B E G# C#
-------------------------------------------------------------------------------
                            Let Them Tremble -  Losing September
-------------------------------------------------------------------------------


Losing September
"Let Them Tremble"
ALBUM - Project Mayhem
2012 Vindicated Records
Website: www.losingseptember.com
Facebook: www.facebook.com/musicforlosers
YouTube: https://www.youtube.com/watch?v=6eO-jnFEOWE
Tabbed by: RiseOfRock9



************************************

| /   slide up
| \   slide down
| h   hammer-on
| p   pull-off
| v   vibrato
| +   harmonic
|n,h, natural harmonic
| *   Pinch Harmonic
| x   Mute note
| b   Bend
| pb  Pre-bend
| br  Bend release
| pbr Pre-bend release
| brb Bend release bend

************************************



Tuning: Drop B       B-F#-B-E-G#-C# 

 
 
  |INTRO 
  |Guitar 1    
C#|-----------------------------------|
G#|-----------------------------------|
E |-----------------------------------|    
B |-----------------------------------| 
F#|-----------------------------------|
B |------------3330-------------------|
  PM           ...  
  |
  |Guitar 2 
C#|-----------------------------------|
G#|-----------------------------------|
E |-----------------------------------|   
B |--------------------------------5--| 
F#|-----------------------------------|
B |-3330------------------------------|
  PM...                           n,h,


                    


|INTRO 
|Guitar 1 & 2    
|----------------------------------|---------------------------------|
|----------------------------------|---------------------------------|
|----------------------------------|---------------------------7-7---|    
|----------------------------------|---------------------------------| 2x
|----------------------------------|---------------------------5-5---|
|--3330---3330-----0---0---3330----|-3330---3330-----0--0--0---------|
|Let ring out      PM  PM                            PM PM PM




|INTRO 
|Guitar 1 & 2    
|----------------------------------|---------------------------------|
|----------------------------------|---------------------------------|
|----------------------------------|-----------------------------7-7-|    
|----------------------------------|---------------------------------| 2x
|----------------------------------|-----------------------------5-5-|
|--3330---3330----000-000--3330----|-3330---3330----000-000-0000-----|
|PM...    ...     ... ...  ...       ...    ...     ... ... ....





(0:36)
|VERSE 1
|Guitar 1    
|------------------------------------------------------------------|
|------------------------------------------------------------------|
|------------------------------------------------------------------|    
|---7-------------------------8------10---8------7-----8---7h8p7p0-| 
|-------10---8---7---8---1087-8---------------10-7-----------------|
|-0---0----0---0---0---0------8----0----0---0----7---0---0---------|
PM.   .    .   .   .   .           .    .   .        .   .
|                                                                                                
|Guitar 2  
|------------------------------------------------------------------|
|------------------------------------------------------------------|
|------------------------------------------------------------------|
|-------------------------875--------------------7-----8---7h8p7p0-|
|--0--------------------------8------------------------------------|
|--0---------------------------------------------------------------|
|PM.                      ...



|VERSE 1
|Guitar 1    
|------------------------------------------------------------------|
|------------------------------------------------------------------|
|------------------------------------------------------------------|    
|---7-------------------------8------10---8------7-----8---7h8p7p0-| 
|-------10---8---7---8---1087-8---------------10-7-----------------|
|-0---0----0---0---0---0------8----0----0---0----7---0---0---------|
PM.   .    .   .   .   .           .    .   .        .   .
|                                                                     2x                           
|Guitar 2  
|------------------------------------------------------------------|
|------------------------------------------------------------------|
|------------------------------------------------------------------|
|-------------------------875--------------------7-----8---7h8p7p5-|
|--5--------------------------8------------------------------------|
|------------------------------------------------------------------|
|Let ring                 ...






|VERSE 1
|Guitar 1    
|------------------------------------------------------------------|
|------------------------------------------------------------------|
|------------------------------------------------------------------|    
|---7-------------------------8------10---8------7-----8---7h8p7p0-| 
|-------10---8---7---8---1087-8---------------10-7-----------------|
|-0---0----0---0---0---0------8----0----0---0----7---0---0---------|
PM.   .    .   .   .   .           .    .   .        .   .
|                                                                                                
|Guitar 2  
|------------------------------------------------------------------|
|-----------------------6p5---6------------------8---------6----5--|
|--7------------------------7--------------------------------------|
|------------------------------------------------------------------|
|------------------------------------------------------------------|
|------------------------------------------------------------------|
|Let ring                 





****************************************************************************************




(0:55)
|CHORUS 1
|Guitar 1    
|----------------------------------------------------|
|----------------------------------------------------|
|----------------------------------------------------|
|-0-----0--0--8-----8---8---10--10-10----5--5--5/7---|
|-0-----0--0--8-----8---8---10--10-10----5--5--5/7---|
|-0-----0--0--8-----8---8---10--10-10----5--5--5/7---|
|
|                                                                                                
|Guitar 2  
|----------------------------------------------------|
|-6-----8-----6-----86-5h6p5--6-----8-----8656-------|
|---757---757---757-------------757---757------7557--|
|----------------------------------------------------|
|----------------------------------------------------|
|----------------------------------------------------|
PM  ...   ...   ...             ...   ...      ....              




|CHORUS 1
|Guitar 1    
|-------------------------------------------------------|
|-------------------------------------------------------|
|-------------------------------------------------------|
|-0-----0--0--8------8---8-----5----5--5----5--5--5/7---|
|-0-----0--0--8------8---8-----5----5--5----5--5--5/7---|
|-0-----0--0--8------8---8-----5----5--5----5--5--5/7---|
|
|                                                                                                
|Guitar 2  
|----------------------------------------------86-5h6p5-|
|-6-----8-----6-----86-5h6p5--6-----8-----8656----------|
|---757---757---757-------------757---757---------------|
|-------------------------------------------------------|
|-------------------------------------------------------|
|-------------------------------------------------------|
PM  ...   ...   ...             ...   ...       






|CHORUS 1
|Guitar 1    
|----------------------------------------------------|
|----------------------------------------------------|
|----------------------------------------------------|
|-0-----0--0--8-----8---8---10--10-10----5--5--5/7---|
|-0-----0--0--8-----8---8---10--10-10----5--5--5/7---|
|-0-----0--0--8-----8---8---10--10-10----5--5--5/7---|
|
|                                                                                                
|Guitar 2  
|----------------------------------------------------|
|-6-----8-----6-----86-5h6p5--6-----8-----8656-------|
|---757---757---757-------------757---757------7557--|
|----------------------------------------------------|
|----------------------------------------------------|
|----------------------------------------------------|
PM  ...   ...   ...             ...   ...      .... 





|CHORUS 1
|Guitar 1    
|-------------------------------------------------------|
|-------------------------------------------------------|
|-------------------------------------------------------|
|-0-----0--0--8------8---8-----5----5--5----5--5--5/7---|
|-0-----0--0--8------8---8-----5----5--5----5--5--5/7---|
|-0-----0--0--8------8---8-----5----5--5----5--5--5/7---|
|
|                                                                                                
|Guitar 2  
|------------------------------------------------86-5h6p5-|
|-6-----8-----6-----86-5h6p5----6-----8-----8656----------|
|---757---757---757---------------757---757---------------|
|---------------------------------------------------------|
|---------------------------------------------------------|
|---------------------------------------------------------|
PM  ...   ...   ...               ...   ...       






****************************************************************************************





(1:15)
|VERSE 2
|Guitar 1    
|------------------------------------------------------------------|
|------------------------------------------------------------------|
|------------------------------------------------------------------|    
|---7-------------------------8------10---8------7-----8---7h8p7p0-| 
|-------10---8---7---8---1087-8---------------10-7-----------------|
|-0---0----0---0---0---0------8----0----0---0----7---0---0---------|
PM.   .    .   .   .   .           .    .   .        .   .
|                                                                                                
|Guitar 2  
|------------------------------------------------------------------|
|------------------------------------------------------------------|
|------------------------------------------------------------------|
|-------------------------875--------------------7-----8---7h8p7p0-|
|--0--------------------------8------------------------------------|
|--0---------------------------------------------------------------|
|PM.                      ...





|VERSE 2
|Guitar 1    
|------------------------------------------------------------------|
|------------------------------------------------------------------|
|------------------------------------------------------------------|    
|---7-------------------------8------10---8------7-----8---7h8p7p0-| 
|-------10---8---7---8---1087-8---------------10-7-----------------|
|-0---0----0---0---0---0------8----0----0---0----7---0---0---------|
PM.   .    .   .   .   .           .    .   .        .   .
|                                                                     2x                           
|Guitar 2  
|------------------------------------------------------------------|
|------------------------------------------------------------------|
|------------------------------------------------------------------|
|-------------------------875--------------------7-----8---7h8p7p0-|
|--5--------------------------8------------------------------------|
|------------------------------------------------------------------|
|Let ring                 ...





|VERSE 2
|Guitar 1    
|------------------------------------------------------------------|
|------------------------------------------------------------------|
|------------------------------------------------------------------|    
|---7-------------------------8------10---8------7-----8---7h8p7p5-| 
|-------10---8---7---8---1087-8---------------10-7-----------------|
|-0---0----0---0---0---0------8----0----0---0----7---0---0---------|
PM.   .    .   .   .   .           .    .   .        .   .
|                                                                                                
|Guitar 2  
|------------------------------------------------------------------|
|-----------------------6p5---6------------------8---------6----5--|
|--7------------------------7--------------------------------------|
|------------------------------------------------------------------|
|------------------------------------------------------------------|
|------------------------------------------------------------------|
|Let ring   




 

****************************************************************************************




(1:35)
|CHORUS 2
|Guitar 1
|---------------------------------------------------|
|---------------------------------------------------|
|---------------------------------------------------|
|-0-----0--0--8-----8---8---10--10-10----5--5--5/7--|
|-0-----0--0--8-----8---8---10--10-10----5--5--5/7--|
|-0-----0--0--8-----8---8---10--10-10----5--5--5/7--|
|
|                                                                                                
|Guitar 2  
|---------------------------------------------------|
|-6-----8-----6-----86-5h6p5--6-----8-----8656------|
|---757---757---757-------------757---757------7557-|
|---------------------------------------------------|
|---------------------------------------------------|
|---------------------------------------------------|
PM  ...   ...   ...             ...   ...      ....              





|CHORUS 2   
|Guitar 1    
|-------------------------------------------------------|
|-------------------------------------------------------|
|-------------------------------------------------------|
|-0-----0--0--8------8---8-----5----5--5----5--5--5/7---|
|-0-----0--0--8------8---8-----5----5--5----5--5--5/7---|
|-0-----0--0--8------8---8-----5----5--5----5--5--5/7---|
|
|                                                                                                
|Guitar 2  
|----------------------------------------------86-5h6p5-|
|-6-----8-----6-----86-5h6p5--6-----8-----8656----------|
|---757---757---757-------------757---757---------------|
|-------------------------------------------------------|
|-------------------------------------------------------|
|-------------------------------------------------------|
PM  ...   ...   ...             ...   ...       







|CHORUS 2
|Guitar 1    
|----------------------------------------------------|
|----------------------------------------------------|
|----------------------------------------------------|
|-0-----0--0--8-----8---8---10--10-10----5--5--5/7---|
|-0-----0--0--8-----8---8---10--10-10----5--5--5/7---|
|-0-----0--0--8-----8---8---10--10-10----5--5--5/7---|
|
|                                                                                                
|Guitar 2  
|----------------------------------------------------|
|-6-----8-----6-----86-5h6p5--6-----8-----8656-------|
|---757---757---757-------------757---757------7557--|
|----------------------------------------------------|
|----------------------------------------------------|
|----------------------------------------------------|
PM  ...   ...   ...             ...   ...      .... 





|CHORUS 2
|Guitar 1       
|-------------------------------------------------------|
|-------------------------------------------------------|
|-------------------------------------------------------|
|-0-----0--0--8------8---8-----5----5--5----5--5--5/7---|
|-0-----0--0--8------8---8-----5----5--5----5--5--5/7---|
|-0-----0--0--8------8---8-----5----5--5----5--5--5/7---|
|
|                                                                                                
|Guitar 2  
|----------------------------------------------86-5h6p5-|
|-6-----8-----6-----86-5h6p5--6-----8-----8656----------|
|---757---757---757-------------757---757---------------|
|-------------------------------------------------------|
|-------------------------------------------------------|
|-------------------------------------------------------|
PM  ...   ...   ...             ...   ...       





****************************************************************************************




(1:56)
|SOLO 1
|Guitar 1    
|-----------------------------------------------------------------------|
|-----------------------------------------------------------------------|
|-----------------------------------------------------------------------|
|-0------0--0----8-------8---8----10----10-10------5------5-----5/7-----|
|-0------0--0----8-------8---8----10----10-10------5------5-----5/7-----|
|-0------0--0----8-------8---8----10----10-10------5------5-----5/7-----|
|
|Guitar 2
|-13p10-----18p15------22p18------20p18------20202020-20p18-------------|
|------13p10-----18p15------22p18------22p18----------------20-18h20-20-|
|-----------------------------------------------------------------------|
|-----------------------------------------------------------------------|
|-----------------------------------------------------------------------|
|-----------------------------------------------------------------------|




|SOLO 1
|Guitar 1    
|-----------------------------------------------------------------------|
|-----------------------------------------------------------------------|
|-----------------------------------------------------------------------|
|-0-------0---0----8------8---8-------5----5---5------5----5-----5/7----|
|-0-------0---0----8------8---8-------5----5---5------5----5-----5/7----|
|-0-------0---0----8------8---8-------5----5---5------5----5-----5/7----|
|
|Guitar 2
|----------------------------17p15-17--18p17h18h20p18p17h18h20-18-20/22-|
|-17p15-17-18p17-18-20p18-20--------------------------------------------|
|-----------------------------------------------------------------------|
|-----------------------------------------------------------------------|
|-----------------------------------------------------------------------|
|-----------------------------------------------------------------------|


|SOLO 1
|Guitar 1    
|----------------------------------------------------------|
|----------------------------------------------------------|
|----------------------------------------------------------|
|-0------0--0--8------8---8---10---10-10-----5--5--5/7-----|
|-0------0--0--8------8---8---10---10-10-----5--5--5/7-----|
|-0------0--0--8------8---8---10---10-10-----5--5--5/7-----|
|
|Guitar 2
|-/22------22--20--------20---18--------17181718-20-18-----|
|----------------------------------------------------------|
|----------------------------------------------------------|
|----------------------------------------------------------|
|----------------------------------------------------------|
|----------------------------------------------------------|



|SOLO 1
|Guitar 1    
|-------------------------------------------------------|
|-------------------------------------------------------|
|-------------------------------------------------------|
|-0-----0--0--8------8---8-----5----5--5----5--5---5/7--|
|-0-----0--0--8------8---8-----5----5--5----5--5---5/7--|
|-0-----0--0--8------8---8-----5----5--5----5--5---5/7--|
|
|Guitar 2
|-------------------------------------------------------|
|-20------18-15-----------------------------------------|
|--------------------------15---------------------------|
|-----------------------------17-----------15-12----15--|
|-------------------------------------------------------|
|-------------------------------------------------------|


****************************************************************************************



(2:17)
|BREAKDOWN
|Guitar 1    
|------------------------------------------------------------------|
|------------------------------------------------------------------|
|------------------------------------------------------------------|
|-0----------------------------------------------------------------|
|-0----------------------------------------------------------------|
|-0----------------------------------------------------------------|
|Let Ring
|
|Guitar 2
|------------------------------------------------------------------|
|------------------------------------------------------------------|
|------------------------------------------------------------------|
|-12v--------------------------------------------------------------|
|------------------------------------------------------------------|
|------------------------------------------------------------------|



|BREAKDOWN
|Guitar 1    
|------------------------------------------------------------------|
|------------------------------------------------------------------|
|------------------------------------------------------------------|
|-(0)--------------------------------------------------------------|
|-(0)--------------------------------------------------------------|
|-(0)--------------------------------------------------------------|
|Let ring
|
|Guitar 2
|------------------------------------------------------------------|
|------------------------------------------------------------------|
|------------------------------------------------------------------|
|------------------------------------------------------------------|
|-------------------------------------------------3*---------------|
|--0-0--0000--00--000-000-----0-0--0000--00--------------3*--------|
|PM. .  ....  ..  ... ...     . .  ....  ..




|BREAKDOWN
|Guitar 1 & 2    
|------------------------------------------------------------------|
|------------------------------------------------------------------|
|------------------------------------------------------------------|
|------------------------------------------------------------------|
|------------------------------------------------------------------|
|--0-0--0000--00--000-000--------0-0--0000--00--000-000------------|





|BREAKDOWN
|Guitar 1 & 2    
|------------------------------------------------------------------|
|------------------------------------------------------------------|
|------------------------------------------------------------------|
|------------------------------------------------------------------|
|------------------------------------------------------------------|
|--0-0--0000--00--000-000--------0-0--0000--00--000-000------------|
|PM. .  ....  ..  ... ...        . .  ....  ..  ... ...





|BREAKDOWN
|Guitar 1    
|---------------------------------------------------------|
|---------------------------------------------------------|
|---------------------------------------------------------|
|---------------------------------------------------------|
|---------------------------------------------------------|
|--0-0--0000--00--000-000-----0-0--0000--00--000-000------|
|Let ring
|
|Guitar 2
|---------------------------------------------------------|
|---------------------------------------------------------|
|---------------------------------------------------------|
|-10878-10878-10878-10878-1210810-1210810-1210810-1210810-|
|---------------------------------------------------------|
|---------------------------------------------------------|





|BREAKDOWN
|Guitar 1    
|----------------------------------------------------------------------|
|----------------------------------------------------------------------|
|----------------------------------------------------------------------|
|-------------------------------------15151515141414141212121214141414-|
|----------------------------------------------------------------------|
|----0-0--0000--00--000-000--------------------------------------------|
|Let ring
|
|Guitar 2
|----------------------------------------------------------------------|
|----------------------------------------------------------------------|
|-------------------------------------14141414121212121010101012121212-|
|-14121012-14121012-14121012-14121012----------------------------------|
|----------------------------------------------------------------------|
|----------------------------------------------------------------------|





****************************************************************************************




(2:47)
|CHORUS 3
|Guitar 1
|---------------------------------------------------|
|---------------------------------------------------|
|---------------------------------------------------|
|-0-----0--0--8-----8---8---10--10-10----5--5--5/7--|
|-0-----0--0--8-----8---8---10--10-10----5--5--5/7--|
|-0-----0--0--8-----8---8---10--10-10----5--5--5/7--|
|
|                                                                                                
|Guitar 2  
|---------------------------------------------------|
|-6-----8-----6-----86-5h6p5--6-----8-----8656------|
|---757---757---757-------------757---757------7557-|
|---------------------------------------------------|
|---------------------------------------------------|
|---------------------------------------------------|
PM  ...   ...   ...             ...   ...      ....              




|CHORUS 3   
|Guitar 1    
|-------------------------------------------------------|
|-------------------------------------------------------|
|-------------------------------------------------------|
|-0-----0--0--8------8---8-----5----5--5----5--5--5/7---|
|-0-----0--0--8------8---8-----5----5--5----5--5--5/7---|
|-0-----0--0--8------8---8-----5----5--5----5--5--5/7---|
|
|                                                                                                
|Guitar 2  
|----------------------------------------------86-5h6p5-|
|-6-----8-----6-----86-5h6p5--6-----8-----8656----------|
|---757---757---757-------------757---757---------------|
|-------------------------------------------------------|
|-------------------------------------------------------|
|-------------------------------------------------------|
PM  ...   ...   ...             ...   ...       





|CHORUS 3
|Guitar 1    
|----------------------------------------------------|
|----------------------------------------------------|
|----------------------------------------------------|
|-0-----0--0--8-----8---8---10--10-10----5--5--5/7---|
|-0-----0--0--8-----8---8---10--10-10----5--5--5/7---|
|-0-----0--0--8-----8---8---10--10-10----5--5--5/7---|
|
|                                                                                                
|Guitar 2  
|----------------------------------------------------|
|-6-----8-----6-----86-5h6p5--6-----8-----8656-------|
|---757---757---757-------------757---757------7557--|
|----------------------------------------------------|
|----------------------------------------------------|
|----------------------------------------------------|
PM  ...   ...   ...             ...   ...      .... 





|CHORUS 3
|Guitar 1       
|-------------------------------------------------------|
|-------------------------------------------------------|
|-------------------------------------------------------|
|-0-----0--0--8------8---8-----5----5--5----5--5--5/7---|
|-0-----0--0--8------8---8-----5----5--5----5--5--5/7---|
|-0-----0--0--8------8---8-----5----5--5----5--5--5/7---|
|
|                                                                                                
|Guitar 2  
|----------------------------------------------86-5h6p5-|
|-6-----8-----6-----86-5h6p5--6-----8-----8656----------|
|---757---757---757-------------757---757---------------|
|-------------------------------------------------------|
|-------------------------------------------------------|
|-------------------------------------------------------|
PM  ...   ...   ...             ...   ...       




****************************************************************************************



(3:06)
|SOLO 2
|Guitar 1    
|-------------------------------------------------------------------------------------------|
|-------------------------------------------------------------------------------------------|
|-------------------------------------------------------------------------------------------|
|--0-------0----0----8------8-----8-----10-------10-----10------5------5-------5/7----------|
|--0-------0----0----8------8-----8-----10-------10-----10------5------5-------5/7----------|
|--0-------0----0----8------8-----8-----10-------10-----10------5------5-------5/7----------|
|
|Guitar 2
|-1086h8p6-12108h10p8-131210h12p10-151312h13p12-17171717-171513h15p13-18181818-181715h17p15-|
|-------------------------------------------------------------------------------------------|
|-------------------------------------------------------------------------------------------|
|-------------------------------------------------------------------------------------------|
|-------------------------------------------------------------------------------------------|
|-------------------------------------------------------------------------------------------|



|Guitar 1    
|----------------------------------------------------------------------------------------------|
|----------------------------------------------------------------------------------------------|
|----------------------------------------------------------------------------------------------|
|--0-------0----0----8------8-----8-------5-------5--------5------5------5---------5/7---------|
|--0-------0----0----8------8-----8-------5-------5--------5------5------5---------5/7---------|
|--0-------0----0----8------8-----8-------5-------5--------5------5------5---------5/7---------|
|
|Guitar 2
|-201715h17p15----15h17p15-201715h17p15----15h17p15-201715h17p15-201715h17p15-201817-----------|
|-------------1817---------------------1817-----------------------------------------201817-----|
|-----------------------------------------------------------------------------------------1917-|
|----------------------------------------------------------------------------------------------|
|----------------------------------------------------------------------------------------------|
|----------------------------------------------------------------------------------------------|




|SOLO 2
|Guitar 1    
|---------------------------------------------------------------------------|
|---------------------------------------------------------------------------|
|---------------------------------------------------------------------------|
|--0-------0----0----8------8-----8----10------10----10--5----5-----5/7-----|
|--0-------0----0----8------8-----8----10------10----10--5----5-----5/7-----|
|--0-------0----0----8------8-----8----10------10----10--5----5-----5/7-----|
|
|Guitar 2
|---------------------------------------------------------------------------|
|-------------------------------------------------------15151515-18171718---|
|-------------------------------------12121212-15141415---------------------|
|-------------------12121212-15141415---------------------------------------|
|-12121212-15141415---------------------------------------------------------|
|---------------------------------------------------------------------------|




|Guitar 1    
|--------------------------------------------------------------------------------|
|--------------------------------------------------------------------------------|
|--------------------------------------------------------------------------------|
|--0-------0----0----8------8-----8-----5-------5------5----5------5-----5/7-----|
|--0-------0----0----8------8-----8-----5-------5------5----5------5-----5/7-----|
|--0-------0----0----8------8-----8-----5-------5------5----5------5-----5/7-----|
|
|Guitar 2
|------------------------------------------------------------------201817h18p17--|
|-15151515-18171718--15151515-18171718--15151515-18171718-20181718---------------|
|--------------------------------------------------------------------------------|
|--------------------------------------------------------------------------------|
|--------------------------------------------------------------------------------|
|--------------------------------------------------------------------------------|





****************************************************************************************




(3:27)
|OUTRO
|Guitar 1    
|------------------------------------------------------|
|------------------------------------------------------|
|------------------------------------------------------|
|------------------------------------------------------|
|------------------------------------------------------|
|--0-0--0000--00--000-000----0-0--0000--00--000-000----|
|PM. .  ....  ..  ... ...    . .  ....  ..  ... ...
|
|Guitar 2
|--17--------------------------------------------------|
|--20b-------------------------------------------------|
|------------------------------------------------------|
|------------------------------------------------------|
|------------------------------------------------------|
|------------------------------------------------------|




|OUTRO
|Guitar 1    
|------------------------------------------------------|
|------------------------------------------------------|
|------------------------------------------------------|
|------------------------------------------------------|
|------------------------------------------------------|
|--1-1--1111--11--111-111----1-1--1111--11--000-000----|
|PM. .  ....  ..  ... ...    . .  ....  ..
|
|Guitar 2
|------------------------------------------------------|
|------------------------------------------------------|
|------------------------------------------------------|
|------------------------------------------------------|
|------------------------------------------------------|
|--1-1--1111--11--111-111----1-1--1111--11--000-000----|
|PM. .  ....  ..  ... ...    . .  ....  ..
|
|
|
|
|END


Suggest correction
Give kudos to tab author, rate the tab!
1 2 3 4 5
comments
print report bad tab
guest
You may want to rate the tab now too:
select rating
Wanna post a correction for this tab? Suggest correction