Oops, an error
Loading. Please wait.

Liars In The Eye tab

26 views 3 this week
no commentswrite comment
1 2 3 4 5
3 more votes to show rating
add to favorites
×
Save as Personal and add changes to this tab that will be seen only by you. Learn more ›
×
You can save this tab as Personal to edit and correct it or add notes. All changes will be seen only by you. Learn more »
launch autoscroll
font size
0
reset
how to read this tab
guitar tuner
edit
Autoscroll
slow
fast
+/-
esc
set tempo
stop
Author
Difficulty
-------------------------------------------------------------------------------
                            Liars In The Eye - Losing September
-------------------------------------------------------------------------------


Losing September
"Liars In The Eye"
ALBUM - Project Mayhem
2012 Vindicated Records
Website: www.losingseptember.com
Facebook: www.facebook.com/musicforlosers
YouTube: (Official Music Video) - https://www.youtube.com/watch?v=FylXFdp_zbM
Tabbed by: RiseOfRock9



************************************

| /   slide up
| \   slide down
| h   hammer-on
| p   pull-off
| v   vibrato
| +   harmonic
| *   Pinch Harmonic
| x   Mute note
| b   Bend
| pb  Pre-bend
| br  Bend release
| pbr Pre-bend release
| brb Bend release bend

************************************


Tuning: Drop B       B-F#-B-E-G#-C# 

 
Guitar 1 is the rhythm guitar.
Guitar 2 is the lead guitar.
Guitar 3 is Piano arranged for guitar. 
Bass is the bass guitar.



  |INTRO 
  |Guitar 3 with echo arranged for Piano 
C#|--------------------------------|---------------------------------|
G#|-11--------------10-------------|-13--------------10--------------|
E |----12--------------12----------|---12--------------12------------|    
B |--------------------------------|---------------------------------|
F#|--------------------------------|---------------------------------|
B |--------------------------------|---------------------------------|




|INTRO CONTINUED 
|Guitar 3 with echo arranged for Piano 
|--------------------------------|---------------------------------|
|-11--------------10-------------|-13-------------10--10--11--10---|
|----12--------------12--------- |----12------------12--12--12--12-|    
|--------------------------------|---------------------------------|
|--------------------------------|---------------------------------|
|--------------------------------|---------------------------------|




|VERSE 1
|Guitar 2
|----------------------------------|----------------------------------|
|-11--11--11--11--10--10--10--10---|-13--13--13--13--10--10--11--10---|
|---12--12--12--12--12--12--12--12-|---12--12--12--12--12--12--12--12-|    
|----------------------------------|----------------------------------|
|----------------------------------|----------------------------------|
|----------------------------------|----------------------------------|
|PM.                         
|
|Bass 
|----------------------------------|----------------------------------|
|----------------------------------|----------------------------------|
|-10---------------9---------------|-8----------------7---------------|
|----------------------------------|----------------------------------|





|VERSE 1
|Guitar 1
|----------------------------------|----------------------------------|
|----------------------------------|----------------------------------|
|----------------------------------|----------------------------------|   
|----------------------------------|----------------------------PAUSE-|
|--5-5-5-5-5-5-5-5-4-4-4-4-4-4-4-4-|--3-3-3-3-3-3-3-3-2-2-2-2-2-------|
|--5-5-5-5-5-5-5-5-4-4-4-4-4-4-4-4-|--3-3-3-3-3-3-3-3-2-2-2-2-2-------|
|PM. 
|
|Guitar 2
|----------------------------------|----------------------------------|
|-11--11--11--11--10--10--10--10---|-13--13--13--13--10--10--11-------|
|---12--12--12--12--12--12--12--12-|---12--12--12--12--12--12---------|    
|----------------------------------|----------------------------PAUSE-|
|----------------------------------|----------------------------------|
|----------------------------------|----------------------------------|
|PM.                         
|
|Bass 
|----------------------------------|----------------------------------|
|----------------------------------|----------------------------------|
|----------------------------------|----------------------------PAUSE-|
|--5-5-5-5-5-5-5-5-4-4-4-4-4-4-4-4-|--3-3-3-3-3-3-3-3-2-2-2-2-2-------|



*******************************************************************************************



|PRE CHORUS 1
|Guitar 1
|-------------------------------------------|-------------------------------------------|
|-------------------------------------------|-------------------------------------------|
|-------------------------------------------|-------------------------------------------|   
|-------------------------------------------|-------------------------------------------|
|--5----5----5----5----5----5----5-----5----|--8----8----8----8----8----8----8-----8----|
|--5----5----5----5----5----5----5-----5----|--8----8----8----8----8----8----8-----8----|
|PM. 
|
|Guitar 2
|-------------------------------------------|-------------------------------------------|
|-11p10-----11p10-----11p10-----11p10-13p10-|-11p10-----11p10-----11p10-----11p10-13p10-|
|------12p10-----12p10-----12p10------------|------12p10-----12p10-----12p10------------|    
|-------------------------------------------|-------------------------------------------|
|-------------------------------------------|-------------------------------------------|
|-------------------------------------------|-------------------------------------------|
|PM.                         
|
|Bass 
|-------------------------------------------|-------------------------------------------|
|-------------------------------------------|-------------------------------------------|
|-------------------------------------------|-------------------------------------------|
|--5----5----5----5----5----5----5-----5----|--8----8----8----8----8----8----8-----8----|





|PRE CHORUS 1
|Guitar 1
|-------------------------------------------|-------------------------------------------|
|-------------------------------------------|-------------------------------------------|
|-------------------------------------------|-------------------------------------------|   
|-------------------------------------------|--5----5----5----5----5----5----5-----5----|
|--3----3----3----3----3----3----3-----3----|--3----3----3----3----3----3----3-----3----|
|--3----3----3----3----3----3----3-----3----|-------------------------------------------|
|PM. 
|
|Guitar 2
|-------------------------------------------|-------------------------------------------|
|-13p10-----13p10-----13p10-----13p10-11p10-|-13--------13---------15-------15----------|
|------12p10-----12p10-----12p10------------|------12--------12---------14--------14----|    
|-------------------------------------------|-------------------------------------------|
|-------------------------------------------|-------------------------------------------|
|-------------------------------------------|-------------------------------------------|
|PM.                         
|
|Bass 
|-------------------------------------------|-------------------------------------------|
|-------------------------------------------|-------------------------------------------|
|-------------------------------------------|--3----3----3----3----3----3----3-----3----|
|--3----3----3----3----3----3----3-----3----|-------------------------------------------|



*******************************************************************************************


|CHORUS 1
|Guitar 1
|----------------------------------|----------------------------------|
|----------------------------------|----------------------------------|
|----------------------------------|----------------------------------|   
|----------------------------------|----------------------------------|
|--5-5-5-5-5-5-5-5-4-4-4-4-4-4-4-4-|--3-3-3-3-3-3-3-3-2-2-2-2-2-2-2-2-|
|--5-5-5-5-5-5-5-5-4-4-4-4-4-4-4-4-|--3-3-3-3-3-3-3-3-2-2-2-2-2-2-2-2-|
|PM. 
|
|Guitar 2
|----------------------------------|----------------------------------|
|-11--11--11--11--10--10--10--10---|-13--13--13--13--10--10--11--10---|
|---12--12--12--12--12--12--12--12-|---12--12--12--12--12--12--12--12-|    
|----------------------------------|----------------------------------|
|----------------------------------|----------------------------------|
|----------------------------------|----------------------------------|
|PM.                         
|
|Bass 
|----------------------------------|----------------------------------|
|----------------------------------|----------------------------------|
|----------------------------------|----------------------------------|
|--5-5-5-5-5-5-5-5-4-4-4-4-4-4-4-4-|--3-3-3-3-3-3-3-3-2-2-2-2-2-2-2-2-|





|Guitar 1
|----------------------------------|----------------------------------------|
|----------------------------------|----------------------------------------|
|----------------------------------|----------------------------------------|   
|----------------------------------|------------------5---------------------|
|--5-5-5-5-5-5-5-5-8-8-8-8-8-8-8-8-|--3-3-3-3-3-3-3-3-3---PAUSE-------------|
|--5-5-5-5-5-5-5-5-8-8-8-8-8-8-8-8-|--3-3-3-3-3-3-3-3-----------------------|
|PM. 
|
|Guitar 2
|----------------------------------|----------------------------------------|
|-11--11--11--11--10--10--10--10---|-13--13--13--13--10--10--11-13h15p13p11-|
|---12--12--12--12--12--12--12--12-|---12--12--12--12--12--12---------------|    
|----------------------------------|----------------------------------------|
|----------------------------------|----------------------------------------|
|----------------------------------|----------------------------------------| 
|PM.                         
|
|Bass 
|----------------------------------|----------------------------------------|
|----------------------------------|----------------------------------------|
|----------------------------------|------------------3---PAUSE-------------|
|--5-5-5-5-5-5-5-5-8-8-8-8-8-8-8-8-|--3-3-3-3-3-3-3-3-----------------------|




*******************************************************************************************



|VERSE 2
|Guitar 2 
|----------------------------------|----------------------------------|
|-11-v-----------------------------|-(11)v----------------------(11)\-|
|----------------------------------|----------------------------------|    
|----------------------------------|----------------------------------|
|----------------------------------|----------------------------------|
|----------------------------------|----------------------------------|
|Let ring out and feed back slightly                         
|
|Bass 
|----------------------------------|----------------------------------|
|----------------------------------|----------------------------------|
|-10---------------9---------------|-8----------------7---------------|
|----------------------------------|----------------------------------|




|Vocals go over bass line
|Bass 
|----------------------------------|----------------------------------|
|----------------------------------|----------------------------------|
|-10---------------9---------------|-8----------------7---------------|
|----------------------------------|----------------------------------|





|VERSE 2
|Guitar 1
|----------------------------------|----------------------------------|
|----------------------------------|----------------------------------|
|----------------------------------|----------------------------------|   
|----------------------------------|----------------------------PAUSE-|
|--5-5-5-5-5-5-5-5-4-4-4-4-4-4-4-4-|--3-3-3-3-3-3-3-3-2-2-2-2-2-------|
|--5-5-5-5-5-5-5-5-4-4-4-4-4-4-4-4-|--3-3-3-3-3-3-3-3-2-2-2-2-2-------|
|PM. 
|
|Guitar 2
|----------------------------------|----------------------------------|
|-11--11--11--11--10--10--10--10---|-13--13--13--13--10--10--11-------|
|---12--12--12--12--12--12--12--12-|---12--12--12--12--12--12---------|    
|----------------------------------|----------------------------PAUSE-|
|----------------------------------|----------------------------------|
|----------------------------------|----------------------------------|
|PM.                         
|
|Bass 
|----------------------------------|----------------------------------|
|----------------------------------|----------------------------------|
|----------------------------------|----------------------------PAUSE-|
|--5-5-5-5-5-5-5-5-4-4-4-4-4-4-4-4-|--3-3-3-3-3-3-3-3-2-2-2-2-2-------|



*******************************************************************************************


|PRE CHORUS 2
|Guitar 1
|-------------------------------------------|-------------------------------------------|
|-------------------------------------------|-------------------------------------------|
|-------------------------------------------|-------------------------------------------|   
|-------------------------------------------|-------------------------------------------|
|--5----5----5----5----5----5----5-----5----|--8----8----8----8----8----8----8-----8----|
|--5----5----5----5----5----5----5-----5----|--8----8----8----8----8----8----8-----8----|
|PM. 
|
|Guitar 2
|-------------------------------------------|-------------------------------------------|
|-11p10-----11p10-----11p10-----11p10-13p10-|-11p10-----11p10-----11p10-----11p10-13p10-|
|------12p10-----12p10-----12p10------------|------12p10-----12p10-----12p10------------|    
|-------------------------------------------|-------------------------------------------|
|-------------------------------------------|-------------------------------------------|
|-------------------------------------------|-------------------------------------------|
|PM.                         
|
|Bass 
|-------------------------------------------|-------------------------------------------|
|-------------------------------------------|-------------------------------------------|
|-------------------------------------------|-------------------------------------------|
|--5----5----5----5----5----5----5-----5----|--8----8----8----8----8----8----8-----8----|





|PRE CHORUS 2
|Guitar 1
|-------------------------------------------|-------------------------------------------|
|-------------------------------------------|-------------------------------------------|
|-------------------------------------------|-------------------------------------------|   
|-------------------------------------------|--5----5----5----5----5----5----5-----5----|
|--3----3----3----3----3----3----3-----3----|--3----3----3----3----3----3----3-----3----|
|--3----3----3----3----3----3----3-----3----|-------------------------------------------|
|PM. 
|
|Guitar 2
|-------------------------------------------|-------------------------------------------|
|-13p10-----13p10-----13p10-----13p10-11p10-|-13--------13---------15-------15----------|
|------12p10-----12p10-----12p10------------|------12--------12---------14--------14----|    
|-------------------------------------------|-------------------------------------------|
|-------------------------------------------|-------------------------------------------|
|-------------------------------------------|-------------------------------------------|
|PM.                         
|
|Bass 
|-------------------------------------------|-------------------------------------------|
|-------------------------------------------|-------------------------------------------|
|-------------------------------------------|--3----3----3----3----3----3----3-----3----|
|--3----3----3----3----3----3----3-----3----|-------------------------------------------|




*******************************************************************************************



|CHORUS 2
|Guitar 1
|----------------------------------|----------------------------------|
|----------------------------------|----------------------------------|
|----------------------------------|----------------------------------|   
|----------------------------------|----------------------------------|
|--5-5-5-5-5-5-5-5-4-4-4-4-4-4-4-4-|--3-3-3-3-3-3-3-3-2-2-2-2-2-2-2-2-|
|--5-5-5-5-5-5-5-5-4-4-4-4-4-4-4-4-|--3-3-3-3-3-3-3-3-2-2-2-2-2-2-2-2-|
|PM. 
|
|Guitar 2
|----------------------------------|----------------------------------|
|-11--11--11--11--10--10--10--10---|-13--13--13--13--10--10--11--10---|
|---12--12--12--12--12--12--12--12-|---12--12--12--12--12--12--12--12-|    
|----------------------------------|----------------------------------|
|----------------------------------|----------------------------------|
|----------------------------------|----------------------------------|
|PM.                         
|
|Bass 
|----------------------------------|----------------------------------|
|----------------------------------|----------------------------------|
|----------------------------------|----------------------------------|
|--5-5-5-5-5-5-5-5-4-4-4-4-4-4-4-4-|--3-3-3-3-3-3-3-3-2-2-2-2-2-2-2-2-|




|CHORUS 2
|Guitar 1
|----------------------------------|----------------------------------------|
|----------------------------------|----------------------------------------|
|----------------------------------|----------------------------------------|   
|----------------------------------|--------------------5-5-5-5-5-5-5-5-5---|
|--5-5-5-5-5-5-5-5-8-8-8-8-8-8-8-8-|--3-3-3-3-3-3-3-3---3-3-3-3-3-3-3-3-3---|
|--5-5-5-5-5-5-5-5-8-8-8-8-8-8-8-8-|--3-3-3-3-3-3-3-3-----------------------|
|PM. 
|
|Guitar 2
|----------------------------------|----------------------------------------|
|-11--11--11--11--10--10--10--10---|-13--13--13--13--10--10--11-13h15p13p11-|
|---12--12--12--12--12--12--12--12-|---12--12--12--12--12--12---------------|    
|----------------------------------|----------------------------------------|
|----------------------------------|----------------------------------------|
|----------------------------------|----------------------------------------|  
|PM.                         
|
|Bass 
|----------------------------------|----------------------------------------|
|----------------------------------|----------------------------------------|
|----------------------------------|---------------------3-3-3-3-3-3-3-3----|
|--5-5-5-5-5-5-5-5-8-8-8-8-8-8-8-8-|--3-3-3-3-3-3-3-3-----------------------|



|CHORUS 2 
|Guitar 1
|----------------------------------|------------------|
|----------------------------------|------------------|
|----------------------------------|------------------|   
|----------------------------------|------------------|
|--5-5-5-5-5-5-5-5-4-4-4-4-4-4-4-4-|--3-3-3-3-3-3-3-3-|
|--5-5-5-5-5-5-5-5-4-4-4-4-4-4-4-4-|--3-3-3-3-3-3-3-3-|
|PM. 
|
|Guitar 2
|----------------------------------|------------------|
|-11--11--11--11--10--10--10--10---|-13--13--13--13---|
|---12--12--12--12--12--12--12--12-|---12--12--12--12-|    
|----------------------------------|------------------|
|----------------------------------|------------------|
|----------------------------------|------------------|
|PM.                         
|
|Bass 
|----------------------------------|------------------|
|----------------------------------|------------------|
|----------------------------------|------------------|
|--5-5-5-5-5-5-5-5-4-4-4-4-4-4-4-4-|--3-3-3-3-3-3-3-3-|



*******************************************************************************************


|PRE BREAKDOWN
|Guitar 1
|----------------------------------|
|----------------------------------|
|----------------------------------|
|----------------------------------| 
|----------------------------------|
|-00-00-00-00-0-0--00-00-00-00-----|   
|PM. 
|
|Guitar 2
|----------------------------------|
|----------------------------------|
|----------------------------------|
|----------------------------------| 
|----------------------------------|
|-00-00-00-00-0-0--00-00-00-00-----|   
|PM.                         
|
|Bass 
|----------------------------------|
|----------------------------------| 
|----------------------------------|
|-00-00-00-00-0-0--00-00-00-00-----|



*******************************************************************************************


|BREAKDOWN
|Guitar 1
|---------------------------------------|---------------------------------------|
|---------------------------------------|---------------------------------------|
|---------------------------------------|---------------------------------------|
|---------------------------------------|---------------------------------------| 
|---------------------------------------|---------------------------------------|
|-00-0---5h7p5p0-1-3--00-0---5h7p5p0-1b-|-00-0---5h7p5p0-1-3--00-0---5h7p5p0-1b-|   
|Let ring out            
|
|Guitar 2
|---------------------------------------|---------------------------------------|
|---------------------------------------|---------------------------------------|
|---------------------------------------|---------------------------------------|
|---------------------------------------|---------------------------------------| 
|---------------------------------------|---------------------------------------|
|-00-0---5h7p5p0-1-3--00-0---5h7p5p0-1b-|-00-0---5h7p5p0-1-3--00-0---5h7p5p0-1b-|  
|Let ring out                        
|
|Bass 
|---------------------------------------|---------------------------------------|
|---------------------------------------|---------------------------------------|
|---------------------------------------|---------------------------------------|
|-00-0---5h7p5p0-1-3--00-0---5h7p5p0-1b-|-00-0---5h7p5p0-1-3--00-0---5h7p5p0-1b-|
|Let ring out




|BREAKDOWN
|Guitar 1
|---------------------------------------|---------------------------------------|
|---------------------------------------|---------------------------------------|
|---------------------------------------|---------------------------------------|
|---------------------------------------|---------------------------------------| 
|---------------------------------------|---------------------------------------|
|-00-0---5h7p5p0-1-3--00-0---5h7p5p0-1b-|-00-0---5h7p5p0-1-3--00-0---5h7p5p0-1b-|   
|PM. .                .. .                .. .                .. .            
|
|Guitar 2
|---------------------------------------|---------------------------------------|
|---------------------------------------|---------------------------------------|
|---------------------------------------|---------------------------------------|
|---------------------------------------|---------------------------------------| 
|---------------------------------------|---------------------------------------|
|-00-0---5h7p5p0-1-3--00-0---5h7p5p0-1b-|-00-0---5h7p5p0-1-3--00-0---5h7p5p0-1b-|  
|PM. .                .. .                .. .                .. .                      
|
|Bass 
|---------------------------------------|---------------------------------------|
|---------------------------------------|---------------------------------------|
|---------------------------------------|---------------------------------------|
|-00-0---5h7p5p0-1-3--00-0---5h7p5p0-1b-|-00-0---5h7p5p0-1-3--00-0---5h7p5p0-1b-| 
|STACCATO             .. .                .. .                .. .




*******************************************************************************************



|Bridge
|Guitar 1
|----------------------------------|----------------------------------|
|----------------------------------|----------------------------------|
|----------------------------------|----------------------------------|   
|--5---------------4---------------|--3-------------------------------|
|--5---------------4---------------|--3---------------2-2-2-2-2-2-2-2-|
|--5---------------4---------------|--3---------------2-2-2-2-2-2-2-2-|
|Let ring out                                       PM. . . . . . .   
|
|Guitar 3 with echo arranged for piano. 
|----------------------------------|----------------------------------|
|-11--11--11--11--10--10--10--10---|-13--13--13--13--10--10--11--10---|
|---12--12--12--12--12--12--12--12-|---12--12--12--12--12--12--12--12-|    
|----------------------------------|----------------------------------|
|----------------------------------|----------------------------------|
|----------------------------------|----------------------------------|
|PM.                         



*******************************************************************************************




|PRE CHORUS 3
|Guitar 1
|-------------------------------------------|-------------------------------------------|
|-------------------------------------------|-------------------------------------------|
|-------------------------------------------|-------------------------------------------|   
|-------------------------------------------|-------------------------------------------|
|--5----5----5----5----5----5----5-----5----|--8----8----8----8----8----8----8-----8----|
|--5----5----5----5----5----5----5-----5----|--8----8----8----8----8----8----8-----8----|
|PM. 
|
|Guitar 2
|-------------------------------------------|-------------------------------------------|
|-11p10-----11p10-----11p10-----11p10-13p10-|-11p10-----11p10-----11p10-----11p10-13p10-|
|------12p10-----12p10-----12p10------------|------12p10-----12p10-----12p10------------|    
|-------------------------------------------|-------------------------------------------|
|-------------------------------------------|-------------------------------------------|
|-------------------------------------------|-------------------------------------------|
|                        
|
|Bass 
|-------------------------------------------|-------------------------------------------|
|-------------------------------------------|-------------------------------------------|
|-------------------------------------------|-------------------------------------------|
|--5----5----5----5----5----5----5-----5----|--8----8----8----8----8----8----8-----8----|





|PRE CHORUS 3
|Guitar 1
|-------------------------------------------|-------------------------------------------|
|-------------------------------------------|-------------------------------------------|
|-------------------------------------------|-------------------------------------------|   
|-------------------------------------------|--5----5----5----5----5----5----5-----5----|
|--3----3----3----3----3----3----3-----3----|--3----3----3----3----3----3----3-----3----|
|--3----3----3----3----3----3----3-----3----|-------------------------------------------|
|PM. 
|
|Guitar 2
|-------------------------------------------|-------------------------------------------|
|-13p10-----13p10-----13p10-----13p10-11p10-|-13--------13---------15-------15----------|
|------12p10-----12p10-----12p10------------|------12--------12---------14--------14----|    
|-------------------------------------------|-------------------------------------------|
|-------------------------------------------|-------------------------------------------|
|-------------------------------------------|-------------------------------------------|
|                         
|
|Bass 
|-------------------------------------------|-------------------------------------------|
|-------------------------------------------|-------------------------------------------|
|-------------------------------------------|--3----3----3----3----3----3----3-----3----|
|--3----3----3----3----3----3----3-----3----|-------------------------------------------|



*******************************************************************************************


|CHORUS 3
|Guitar 1
|----------------------------------|----------------------------------|
|----------------------------------|----------------------------------|
|----------------------------------|----------------------------------|   
|----------------------------------|----------------------------------|
|--5-5-5-5-5-5-5-5-4-4-4-4-4-4-4-4-|--3-3-3-3-3-3-3-3-2-2-2-2-2-2-2-2-|
|--5-5-5-5-5-5-5-5-4-4-4-4-4-4-4-4-|--3-3-3-3-3-3-3-3-2-2-2-2-2-2-2-2-|
|PM. 
|
|Guitar 2
|----------------------------------|----------------------------------|
|-11--11--11--11--10--10--10--10---|-13--13--13--13--10--10--11--10---|
|---12--12--12--12--12--12--12--12-|---12--12--12--12--12--12--12--12-|    
|----------------------------------|----------------------------------|
|----------------------------------|----------------------------------|
|----------------------------------|----------------------------------|
|PM.                         
|
|Bass 
|----------------------------------|----------------------------------|
|----------------------------------|----------------------------------|
|----------------------------------|----------------------------------|
|--5-5-5-5-5-5-5-5-4-4-4-4-4-4-4-4-|--3-3-3-3-3-3-3-3-2-2-2-2-2-2-2-2-|



|CHORUS 3
|Guitar 1
|----------------------------------|----------------------------------------|
|----------------------------------|----------------------------------------|
|----------------------------------|----------------------------------------|   
|----------------------------------|--------------------5-5-5-5-5-5-5-5-5---|
|--5-5-5-5-5-5-5-5-8-8-8-8-8-8-8-8-|--3-3-3-3-3-3-3-3---3-3-3-3-3-3-3-3-3---|
|--5-5-5-5-5-5-5-5-8-8-8-8-8-8-8-8-|--3-3-3-3-3-3-3-3-----------------------|
|PM. 
|
|Guitar 2
|----------------------------------|----------------------------------------|
|-11--11--11--11--11--11--11--11---|-13--13--13--13--10--10--11-13h15p13p11-|
|---12--12--12--12--12--12--12--12-|---12--12--12--12--12--12---------------|    
|----------------------------------|----------------------------------------|
|----------------------------------|----------------------------------------|
|----------------------------------|----------------------------------------|  
|PM.                         
|
|Bass 
|----------------------------------|----------------------------------------|
|----------------------------------|----------------------------------------|
|----------------------------------|---------------------3-3-3-3-3-3-3-3----|
|--5-5-5-5-5-5-5-5-8-8-8-8-8-8-8-8-|--3-3-3-3-3-3-3-3-----------------------|




*******************************************************************************************



|SOLO
|Guitar 1
|----------------------------------|-----------------------------------|
|----------------------------------|-----------------------------------|
|----------------------------------|-----------------------------------|   
|----------------------------------|-----------------5-5-5-5-5-5-5-5---|
|--5-5-5-5-5-5-5-5-8-8-8-8-8-8-8-8-|-3-3-3-3-3-3-3-3-3-3-3-3-3-3-3-3---|
|--5-5-5-5-5-5-5-5-8-8-8-8-8-8-8-8-|-3-3-3-3-3-3-3-3-------------------|
|PM. 
|
|Guitar 2
|-22\15---18h20-18--------18h20-17-|-----------17h18-18/20-18----18h20-|
|------------------20--------------|-18-----------------------20-------|
|----------------------------------|-----------------------------------|   
|----------------------------------|-----------------------------------|
|----------------------------------|-----------------------------------|
|----------------------------------|-----------------------------------|  
|PM.                         
|
|Bass 
|----------------------------------|-----------------------------------|
|----------------------------------|-----------------------------------|
|----------------------------------|-----------------3-3-3-3-3-3-3-3---|
|--5-5-5-5-5-5-5-5-8-8-8-8-8-8-8-8-|-3-3-3-3-3-3-3-3-------------------|




|SOLO
|Guitar 1
|----------------------------------|-----------------------------------|
|----------------------------------|-----------------------------------|
|----------------------------------|-----------------------------------|   
|----------------------------------|-----------------5-5-5-5-5-5-5-5---|
|--5-5-5-5-5-5-5-5-8-8-8-8-8-8-8-8-|-3-3-3-3-3-3-3-3-3-3-3-3-3-3-3-3---|
|--5-5-5-5-5-5-5-5-8-8-8-8-8-8-8-8-|-3-3-3-3-3-3-3-3-------------------|
|PM. 
|
|Guitar 2
|-22\15---18h20-18--------18h20-17-|----------17h18-15-------------------|
|------------------20--------------|-18---------------16--15h16p15h16p15-|
|----------------------------------|--------------------17---------------|   
|----------------------------------|-------------------------------------|
|----------------------------------|-------------------------------------|
|----------------------------------|-------------------------------------|  
|PM.                         
|
|Bass 
|----------------------------------|-----------------------------------|
|----------------------------------|-----------------------------------|
|----------------------------------|-----------------3-3-3-3-3-3-3-3---|
|--5-5-5-5-5-5-5-5-8-8-8-8-8-8-8-8-|-3-3-3-3-3-3-3-3-------------------|




|SOLO
|Guitar 1
|------------------------------------------------|---------------|
|------------------------------------------------|---------------|
|------------------------------------------------|---------------|   
|------------------------------------------------|---------------|
|-5--5--5--5--5--5--5--5--4--4--4--4--4--4--4--4-|---------------|
|-5--5--5--5--5--5--5--5--4--4--4--4--4--4--4--4-|-3b------------|
|PM. 
|
|Guitar 2
|------------------------------------------------|---------------|
|-15v-----15h16p15h16p15-15v------15h16p15h16p15-|-15b-----------|   
|------------------------------------------------|---------------|
|------------------------------------------------|---------------|
|------------------------------------------------|---------------|
|------------------------------------------------|---------------|
|PM.                         
|
|Bass 
|------------------------------------------------|---------------|
|------------------------------------------------|---------------|
|------------------------------------------------|---------------|
|-5--5--5--5--5--5--5--5--4--4--4--4--4--4--4--4-|-3b------------|



*******************************************************************************************


|BRIDGE
|Guitar 1
|----------------------------------|
|----------------------------------|
|----------------------------------|
|----------------------------------| 
|----------------------------------|
|-00-00-00-00-0-0--00-00-00-00-----|   
|PM. 
|
|Guitar 2
|----------------------------------|
|----------------------------------|
|----------------------------------|
|----------------------------------| 
|----------------------------------|
|-00-00-00-00-0-0--00-00-00-00-----|   
|PM.                         
|
|Bass 
|----------------------------------|
|----------------------------------| 
|----------------------------------|
|-00-00-00-00-0-0--00-00-00-00-----|



*******************************************************************************************


|BREAKDOWN 2
|Guitar 1
|---------------------------------------|---------------------------------------|
|---------------------------------------|---------------------------------------|
|---------------------------------------|---------------------------------------|
|---------------------------------------|---------------------------------------| 
|---------------------------------------|---------------------------------------|
|-00-0---5h7p5p0-1-3--00-0---5h7p5p0-1b-|-00-0---5h7p5p0-1-3--00-0---5h7p5p0-1b-|   
|Let ring out            
|
|Guitar 2
|---------------------------------------|---------------------------------------|
|---------------------------------------|---------------------------------------|
|---------------------------------------|---------------------------------------|
|---------------------------------------|---------------------------------------| 
|---------------------------------------|---------------------------------------|
|-00-0---5h7p5p0-1-3--00-0---5h7p5p0-1b-|-00-0---5h7p5p0-1-3--00-0---5h7p5p0-1b-|   
|Let ring out                        
|
|Bass 
|---------------------------------------|---------------------------------------|
|---------------------------------------|---------------------------------------|
|---------------------------------------|---------------------------------------|
|-00-0---5h7p5p0-1-3--00-0---5h7p5p0-1b-|-00-0---5h7p5p0-1-3--00-0---5h7p5p0-1b-| 




|BREAKDOWN 2
|Guitar 1
|---------------------------------------|---------------------------------------|
|---------------------------------------|---------------------------------------|
|---------------------------------------|---------------------------------------|
|---------------------------------------|---------------------------------------| 
|---------------------------------------|---------------------------------------|
|-00-0---5h7p5p0-1-3--00-0---5h7p5p0-1b-|-00-0---5h7p5p0-1-3--00-0---5h7p5p0-1b-|    
|PM. .                .. .                .. .                .. .            
|
|Guitar 2
|---------------------------------------|---------------------------------------|
|---------------------------------------|---------------------------------------|
|---------------------------------------|---------------------------------------|
|---------------------------------------|---------------------------------------| 
|---------------------------------------|---------------------------------------|
|-00-0---5h7p5p0-1-3--00-0---5h7p5p0-1b-|-00-0---5h7p5p0-1-3--00-0---5h7p5p0-1b-|   
|PM. .                .. .                .. .                .. .                      
|
|Bass 
|---------------------------------------|---------------------------------------|
|---------------------------------------|---------------------------------------|
|---------------------------------------|---------------------------------------|
|-00-0---5h7p5p0-1-3--00-0---5h7p5p0-1b-|-00-0---5h7p5p0-1-3--00-0---5h7p5p0-1b-| 
|STACCATO             .. .                .. .                .. .
|
|
|
|END






            
            
Suggest correction
Creating personal tab
Creating personal tab
You can edit any tab online and save it as your Personal.

You can edit, replace or remove any tab part or add personal notes – all changes will be seen only by you.

Personal tabs can be accessed anytime from any device, even offline.
Learn more »
Give kudos to tab author, rate the tab!
1 2 3 4 5
comments
print report bad tab
guest
You may want to rate the tab now too:
select rating
Wanna post a correction for this tab? Suggest correction