Oops, an error
Loading. Please wait.
39 views 1 this week
no commentswrite comment
1 2 3 4 5
3 more votes to show rating
add to favorites
launch autoscroll
font size
0
reset
how to read this tab
guitar tuner
×
Best way to learn
"Twitch"
Autoscroll
slow
fast
+/-
esc
set tempo
stop
Author
Difficulty
  follow
intermediate
-------------------------------------------------------------------------------
                            Twitch - Losing September
-------------------------------------------------------------------------------


Losing September
"Twitch"
ALBUM - There Will Be Casualties
2010 Fidelity Entertainment
Website: www.losingseptember.com
Facebook: www.facebook.com/musicforlosers
Stream Song for free: https://losingseptember.bandcamp.com/track/twitch  
Tabbed by: RiseOfRock9



************************************

| /   slide up
| \   slide down
| h   hammer-on
| p   pull-off
| v   vibrato
|n,h, natural harmonic
| *   Pinch Harmonic
| x   Mute note
| b   Bend
| pb  Pre-bend
| br  Bend release
| pbr Pre-bend release
| brb Bend release bend

************************************


Tuning: Drop B       B-F#-B-E-G#-C# 

 
Guitar 1 is the rhythm guitar.
Guitar 2 is the lead guitar.



|INTRO 
|Guitar 1   
|------------------------------------------|----------------------------------------------|
|------------------------------------------|----------------------------------------------|
|------------------------------------------|----------------------------------------------|       
|------------------------------------------|------------------------------------------5---|
|------------------------------------------|--------------------------------------5-------|
|-0--0h2h3-0---0h3p2-0---0h2h3-5--5--5-3-2-|-0---0h2h3-0----0h3p2-0---0h2h3-5-55----------|
|                                                                                n,h,n,h,
|Guitar 2        
|------------------------------------------|----------------------------------------------|
|------------------------------------------|----------------------------------------------|
|------------------------------------------|----------------------------------------------|       
|------------------------------------------|------------------------------------------5---|
|------------------------------------------|--------------------------------------5-------|
|------------------------------------------|-0---0h2h3-0----0h3p2-0---0h2h3-5-55----------|
                                                                                  n,h,n,h,




|INTRO
|Guitar 1  
|------------------------------------------|----------------------------------------------|
|------------------------------------------|----------------------------------------------|
|------------------------------------------|----------------------------------------------|       
|------------------------------------------|-------------------------------------------5--|
|------------------------------------------|---------------------------------------5------|
|-0--0h2h3-0---0h3p2-0---0h2h3-5--5--5-3-2-|-0---0h2h3-0----0h3p2-0---0h2h3-5-55----------|
|                                                                                 n,h,n,h,
|Guitar 2  
|------------------------------------------|----------------------------------------------|
|------------------------------------------|----------------------------------------------|
|------------------------------------------|----------------------------------------------|       
|------------------------------------------|-------------------------------------------5--|
|------------------------------------------|---------------------------------------5------|
|-0--0h2h3-0---0h3p2-0---0h2h3-5--5--5-3-2-|-0---0h2h3-0----0h3p2-0---0h2h3-5-55----------|
                                                                                  n,h,n,h,



*************************************************************************************************



(0:18)
|VERSE
|Guitar 1   
|-------------------|----------------------|--------------------|------------------------|
|-------------------|----------------------|--------------------|------------------------|
|-----------2-------|------------2---------|------------0-------|------------------------|   
|------2h3----------|--------2h3-----------|--------2h3---------|---3----3------2--------|
|-------------------|----------------------|-3------------------|-1----------/3----------|
|-0-----------------|-3--------------------|--------------------|------------------------|
|                                                                                          x3
|Guitar 2       
|-------------------|----------------------|--------------------|------------------------|
|-------------------|----------------------|--------------------|------------------------|
|-------------------|----------------------|--------------------|------------------------|  
|-0-----------------|-3--------------------|-10-----------------|-8----------10----------|
|-0-----------------|-3--------------------|-10-----------------|-8----------10----------|
|-0-----------------|-3--------------------|-10-----------------|-8----------10----------|
|(volume swells)





**************************************************************************************************



(0:45)
|PRE-CHORUS 1
|Guitar 1        
|-------------------|----------------------|--------------------|---------------------|
|-------------------|----------------------|--------------------|---------------------|
|-------------------|----------------------|--------------------|---------------------|  
|-0-----------------|-3--------------------|-10-----------------|-8-8-8-8-10-10-10-10-|
|-0-----------------|-3--------------------|-10-----------------|-8-8-8-8-10-10-10-10-|
|-0-----------------|-3--------------------|-10-----------------|-8-8-8-8-10-10-10-10-|
|
|Guitar 2        
|-------------------|----------------------|--------------------|---------------------|
|-------------------|----------------------|--------------------|---------------------|
|-------------------|----------------------|--------------------|---------------------|  
|-0-----------------|-3--------------------|-10-----------------|-8-8-8-8-10-10-10-10-|
|-0-----------------|-3--------------------|-10-----------------|-8-8-8-8-10-10-10-10-|
|-0-----------------|-3--------------------|-10-----------------|-8-8-8-8-10-10-10-10-|




|PRE-CHORUS 1
|Guitar 1         
|-------------------|----------------------|--------------------|---------------------|
|-------------------|----------------------|--------------------|---------------------|
|-------------------|----------------------|--------------------|---------------------|  
|-0-----------------|-3--------------------|-10-----------------|-8-8-8-8-10-10-10----|
|-0-----------------|-3--------------------|-10-----------------|-8-8-8-8-10-10-10----|
|-0-----------------|-3--------------------|-10-----------------|-8-8-8-8-10-10-10----|
|                                                               PM................
|Guitar 2               
|-------------------|----------------------|--------------------|---------------------|
|-------------------|----------------------|--------------------|---------------------|
|-------------------|----------------------|--------------------|---------------------|  
|-0-----------------|-3--------------------|-10-----------------|-8-8-8-8-10-10-10----|
|-0-----------------|-3--------------------|-10-----------------|-8-8-8-8-10-10-10----|
|-0-----------------|-3--------------------|-10-----------------|-8-8-8-8-10-10-10----|
                                                                PM................





**************************************************************************************************



(1:02)
|CHORUS 1
|Guitar 1   
|-------------------------|-------------------------|
|-------------------------|-------------------------|
|-------------------------|-------------------------|  
|--0--0--0--0--0--0--0--0-|--3--3--3--3--3--3--3--3-|
|--0--0--0--0--0--0--0--0-|--3--3--3--3--3--3--3--3-|
|--0--0--0--0--0--0--0--0-|--3--3--3--3--3--3--3--3-|
|
|Guitar 2      
|-------------------------|-------------------------|
|-------------------------|-------------------------|
|-15-15-15-15-15-15-15-15-|-14-14-14-14-14-14-14-14-|      
|-------------------------|-------------------------|
|-13-13-13-13-13-13-13-13-|-12-12-12-12-12-12-12-12-|
|-------------------------|-------------------------|



|CHORUS 1
|Guitar 2   
|-------------------------|--------------------------|
|-------------------------|--------------------------|
|-------------------------|--------------------------| 
|--5--5--5--5--5--5--5--5-|--3--3--3--3--5--5--5--5--|
|--3--3--3--3--3--3--3--3-|--1--1--1--1--3--3--3--3--|
|-------------------------|--------------------------|
|
|Guitar 2      
|-------------------------|--------------------------|   
|-------------------------|--------------------------|
|-15-15-15-15-15-15-15-15-|-12-12-12-12-10-10-10-10--|       
|-------------------------|--------------------------|
|-13-13-13-13-13-13-13-13-|-10-10-10-10--8--8--8--8--|
|-------------------------|--------------------------|




|CHORUS 1
|Guitar 1   
|-------------------------|-------------------------|
|-------------------------|-------------------------|
|-------------------------|-------------------------|  
|--0--0--0--0--0--0--0--0-|--3--3--3--3--3--3--3--3-|
|--0--0--0--0--0--0--0--0-|--3--3--3--3--3--3--3--3-|
|--0--0--0--0--0--0--0--0-|--3--3--3--3--3--3--3--3-|
|
|Guitar 2      
|-------------------------|-------------------------|
|-------------------------|-------------------------|
|-15-15-15-15-15-15-15-15-|-17-17-17-17-17-17-17-17-|      
|-------------------------|-------------------------|
|-13-13-13-13-13-13-13-13-|-15-15-15-15-15-15-15-15-|
|-------------------------|-------------------------|




|CHORUS 1
|Guitar 2   
|-------------------------|-------------------------|-------------------------| 
|-------------------------|-------------------------|-------------------------| 
|-------------------------|-------------------------|-------------------------|  
|--5--5--5--5--5--5--5--5-|--3--3--3--3--5--5--5--5-|--3--3--3--3--5--5--5--5-|
|--3--3--3--3--3--3--3--3-|--1--1--1--1--3--3--3--3-|--1--1--1--1--3--3--3--3-|
|-------------------------|-------------------------|-------------------------| 
|
|Guitar 2      
|-------------------------|-------------------------|-------------------------| 
|-------------------------|-------------------------|-------------------------| 
|-/1917-15h17p15-14151715-|-12-12-12-12-14-14-14-14-|-15-15-15-15-15-15-15-15-|        
|-------------------------|-------------------------|-------------------------| 
|-------------------------|-------------------------|-------------------------| 
|-------------------------|-------------------------|-------------------------|





**************************************************************************************************



(1:24)
|VERSE 2
|Guitar 1  
|-------------------|----------------------|--------------------|------------------------|
|-------------------|----------------------|--------------------|------------------------|
|-----------2-------|------------2---------|------------0-------|------------------------|   
|------2h3----------|--------2h3-----------|--------2h3---------|---3----3------2--------|
|-------------------|----------------------|-3------------------|-1----------/3----------|
|-0-----------------|-3--------------------|--------------------|------------------------|
|                                                                                           x3
|Guitar 2        
|-------------------|----------------------|--------------------|------------------------|
|-------------------|----------------------|--------------------|------------------------|
|-------------------|----------------------|--------------------|------------------------|  
|-0-----------------|-3--------------------|-10-----------------|-8----------10----------|
|-0-----------------|-3--------------------|-10-----------------|-8----------10----------|
|-0-----------------|-3--------------------|-10-----------------|-8----------10----------|
|(volume swells)





***************************************************************************************************




(1:42)
|PRE-CHORUS 2
|Guitar 1         
|-------------------|----------------------|--------------------|---------------------|
|-------------------|----------------------|--------------------|---------------------|
|-------------------|----------------------|--------------------|---------------------|  
|-0-----------------|-3--------------------|-10-----------------|-8-8-8-8-10-10-10-10-|
|-0-----------------|-3--------------------|-10-----------------|-8-8-8-8-10-10-10-10-|
|-0-----------------|-3--------------------|-10-----------------|-8-8-8-8-10-10-10-10-|
|
|Guitar 2               
|-------------------|----------------------|--------------------|---------------------|
|-------------------|----------------------|--------------------|---------------------|
|-------------------|----------------------|--------------------|---------------------|  
|-0-----------------|-3--------------------|-10-----------------|-8-8-8-8-10-10-10-10-|
|-0-----------------|-3--------------------|-10-----------------|-8-8-8-8-10-10-10-10-|
|-0-----------------|-3--------------------|-10-----------------|-8-8-8-8-10-10-10-10-|




|PRE-CHORUS 2
|Guitar 1         
|-------------------|----------------------|--------------------|---------------------|
|-------------------|----------------------|--------------------|---------------------|
|-------------------|----------------------|--------------------|---------------------|  
|-0-----------------|-3--------------------|-10-----------------|-8-8-8-8-10-10-10----|
|-0-----------------|-3--------------------|-10-----------------|-8-8-8-8-10-10-10----|
|-0-----------------|-3--------------------|-10-----------------|-8-8-8-8-10-10-10----|
|                                                               PM................
|Guitar 2               
|-------------------|----------------------|--------------------|---------------------|
|-------------------|----------------------|--------------------|---------------------|
|-------------------|----------------------|--------------------|---------------------|  
|-0-----------------|-3--------------------|-10-----------------|-8-8-8-8-10-10-10----|
|-0-----------------|-3--------------------|-10-----------------|-8-8-8-8-10-10-10----|
|-0-----------------|-3--------------------|-10-----------------|-8-8-8-8-10-10-10----|
                                                                PM................



**************************************************************************************************




(2:00)
|CHORUS 2
|Guitar 1   
|-------------------------|-------------------------|
|-------------------------|-------------------------|
|-------------------------|-------------------------|  
|--0--0--0--0--0--0--0--0-|--3--3--3--3--3--3--3--3-|
|--0--0--0--0--0--0--0--0-|--3--3--3--3--3--3--3--3-|
|--0--0--0--0--0--0--0--0-|--3--3--3--3--3--3--3--3-|
|
|Guitar 2      
|-------------------------|-------------------------|
|-------------------------|-------------------------|
|-15-15-15-15-15-15-15-15-|-14-14-14-14-14-14-14-14-|      
|-------------------------|-------------------------|
|-13-13-13-13-13-13-13-13-|-12-12-12-12-12-12-12-12-|
|-------------------------|-------------------------|




|CHORUS 2
|Guitar 1   
|-------------------------|--------------------------|
|-------------------------|--------------------------|
|-------------------------|--------------------------| 
|--5--5--5--5--5--5--5--5-|--3--3--3--3--5--5--5--5--|
|--3--3--3--3--3--3--3--3-|--1--1--1--1--3--3--3--3--|
|-------------------------|--------------------------|
|
|Guitar 2      
|-------------------------|--------------------------|   
|-------------------------|--------------------------|
|-15-15-15-15-15-15-15-15-|-12-12-12-12-10-10-10-10--|       
|-------------------------|--------------------------|
|-13-13-13-13-13-13-13-13-|-10-10-10-10--8--8--8--8--|
|-------------------------|--------------------------|




|CHORUS 2
|Guitar 1   
|-------------------------|-------------------------|
|-------------------------|-------------------------|
|-------------------------|-------------------------|  
|--0--0--0--0--0--0--0--0-|--3--3--3--3--3--3--3--3-|
|--0--0--0--0--0--0--0--0-|--3--3--3--3--3--3--3--3-|
|--0--0--0--0--0--0--0--0-|--3--3--3--3--3--3--3--3-|
|
|Guitar 2      
|-------------------------|-------------------------|
|-------------------------|-------------------------|
|-15-15-15-15-15-15-15-15-|-17-17-17-17-17-17-17-17-|      
|-------------------------|-------------------------|
|-13-13-13-13-13-13-13-13-|-15-15-15-15-15-15-15-15-|
|-------------------------|-------------------------|





|CHORUS 2
|Guitar 1   
|-------------------------|-------------------------|-------------------------| 
|-------------------------|-------------------------|-------------------------| 
|-------------------------|-------------------------|-------------------------|  
|--5--5--5--5--5--5--5--5-|--3--3--3--3--5--5--5--5-|--3--3--3--3--5--5--5--5-|
|--3--3--3--3--3--3--3--3-|--1--1--1--1--3--3--3--3-|--1--1--1--1--3--3--3--3-|
|-------------------------|-------------------------|-------------------------| 
|
|Guitar 2      
|-------------------------|-------------------------|-------------------------| 
|-------------------------|-------------------------|-------------------------| 
|-/1917-15h17p15-14151715-|-12-12-12-12-14-14-14-14-|-15-15-15-15-15-15-15-15-|        
|-------------------------|-------------------------|-------------------------| 
|-------------------------|-------------------------|-------------------------| 
|-------------------------|-------------------------|-------------------------|




***************************************************************************************************


 
(2:20)
|BREAKDOWN
|Guitar 1   
|----------------------------------------|-----------------------------------------|
|----------------------------------------|-----------------------------------------|
|----------------------------------------|-----------------------------------------|       
|----------------------------------------|-----------------------------------------|
|----------------------------------------|-----------------------------------------|
|-0--0h2h3-0---0h3p2-0---0h2h3-5--55-3-2-|-0---0h2h3-0----0h3p2-0---0h2h3-5-55-3-2-|
|
|Guitar 2        
|----------------------------------------|-----------------------------------------|
|----------------------------------------|-----------------------------------------|
|----------------------------------------|-----------------------------------------|       
|----------------------------------------|-----------------------------------------|
|----------------------------------------|-----------------------------------------|
|----------------------------------------|-0---0h2h3-0----0h3p2-0---0h2h3-5-55-3-2-|




|BREAKDOWN
|Guitar 1   
|----------------------------------------|-----------------------------------------|
|----------------------------------------|-----------------------------------------|
|----------------------------------------|-----------------------------------------|       
|----------------------------------------|-----------------------------------------|
|----------------------------------------|-----------------------------------------|
|-0--0h2h3-0---0h3p2-0---0h2h3-5--55-3-2-|-0---0h2h3-0----0h3p2-0---0h2h3-5-55-3-2-|
|Let Ring
|
|Guitar 2   
|----------------------------------------|-----------------------------------------|
|----------------------------------------|-----------------------------------------|
|----------------------------------------|-----------------------------------------|       
|----------------------------------------|-----------------------------------------|
|----------------------------------------|-----------------------------------------|
|-0--0h2h3-0---0h3p2-0---0h2h3-5--55-3-2-|-0---0h2h3-0----0h3p2-0---0h2h3-5-55-3-2-|
|Let ring





|BREAKDOWN
|Guitar 1  
|------------------------------------------|----------------------------------------------|
|------------------------------------------|----------------------------------------------|
|------------------------------------------|----------------------------------------------|       
|------------------------------------------|-------------------------------------------5--|
|------------------------------------------|----------------------------------------5-----|
|-0--0h2h3-0---0h3p2-0---0h2h3-5--5--5-3-2-|-0---0h2h3-0----0h3p2-0---0h2h3-5-55----------|
|                                                                                 n,h,n,h,
|Guitar 2  
|------------------------------------------|----------------------------------------------|
|------------------------------------------|----------------------------------------------|
|------------------------------------------|----------------------------------------------|       
|------------------------------------------|-------------------------------------------5--|
|------------------------------------------|---------------------------------------5------|
|-0--0h2h3-0---0h3p2-0---0h2h3-5--5--5-3-2-|-0---0h2h3-0----0h3p2-0---0h2h3-5-55----------|
                                                                                  n,h,n,h,




*****************************************************************************************************


(2:49)
|BRIDGE
|Guitar 1   
|-------------------|----------------------|--------------------|------------------------|
|-------------------|----------------------|--------------------|------------------------|
|-----------2-------|------------2---------|------------0-------|------------------------|   
|------2h3----------|--------2h3-----------|--------2h3---------|---3----3------2--------|
|-------------------|----------------------|-3------------------|-1----------/3----------|
|-0-----------------|-3--------------------|--------------------|------------------------|
|                                                                                           
|Guitar 2         
|-------------------|----------------------|--------------------|------------------------|
|-------------------|----------------------|--------------------|------------------------|
|-------------------|----------------------|--------------------|------------------------|  
|-0-----------------|-3--------------------|-10-----------------|-8----------10----------|
|-0-----------------|-3--------------------|-10-----------------|-8----------10----------|
|-0-----------------|-3--------------------|-10-----------------|-8----------10----------|
| volume swells)





*****************************************************************************************************




(2:58)
|PRE-CHORUS 3
|Guitar 1        
|-------------------|----------------------|--------------------|---------------------|
|-------------------|----------------------|--------------------|---------------------|
|-------------------|----------------------|--------------------|---------------------|  
|-0-----------------|-3--------------------|-10-----------------|-8-8-8-8-10-10-10----|
|-0-----------------|-3--------------------|-10-----------------|-8-8-8-8-10-10-10----|
|-0-----------------|-3--------------------|-10-----------------|-8-8-8-8-10-10-10----|
|
|Guitar 2        
|-------------------|----------------------|--------------------|---------------------|
|-------------------|----------------------|--------------------|---------------------|
|-------------------|----------------------|--------------------|---------------------|  
|-0-----------------|-3--------------------|-10-----------------|-8-8-8-8-10-10-10----|
|-0-----------------|-3--------------------|-10-----------------|-8-8-8-8-10-10-10----|
|-0-----------------|-3--------------------|-10-----------------|-8-8-8-8-10-10-10----|
                                                                PM................



*****************************************************************************************************




(3:07)
|CHORUS 3
|Guitar 1   
|-------------------------|-------------------------|
|-------------------------|-------------------------|
|-------------------------|-------------------------|  
|--0--0--0--0--0--0--0--0-|--3--3--3--3--3--3--3--3-|
|--0--0--0--0--0--0--0--0-|--3--3--3--3--3--3--3--3-|
|--0--0--0--0--0--0--0--0-|--3--3--3--3--3--3--3--3-|
|
|Guitar 2      
|-------------------------|-------------------------|
|-------------------------|-------------------------|
|-15-15-15-15-15-15-15-15-|-14-14-14-14-14-14-14-14-|      
|-------------------------|-------------------------|
|-13-13-13-13-13-13-13-13-|-12-12-12-12-12-12-12-12-|
|-------------------------|-------------------------|




|CHORUS 3
|Guitar 2   
|-------------------------|--------------------------|
|-------------------------|--------------------------|
|-------------------------|--------------------------| 
|--5--5--5--5--5--5--5--5-|--3--3--3--3--5--5--5--5--|
|--3--3--3--3--3--3--3--3-|--1--1--1--1--3--3--3--3--|
|-------------------------|--------------------------|
|
|Guitar 2      
|-------------------------|--------------------------|   
|-------------------------|--------------------------|
|-15-15-15-15-15-15-15-15-|-12-12-12-12-10-10-10-10--|       
|-------------------------|--------------------------|
|-13-13-13-13-13-13-13-13-|-10-10-10-10--8--8--8--8--|
|-------------------------|--------------------------|





|CHORUS 3
|Guitar 1   
|-------------------------|-------------------------|
|-------------------------|-------------------------|
|-------------------------|-------------------------|  
|--0--0--0--0--0--0--0--0-|--3--3--3--3--3--3--3--3-|
|--0--0--0--0--0--0--0--0-|--3--3--3--3--3--3--3--3-|
|--0--0--0--0--0--0--0--0-|--3--3--3--3--3--3--3--3-|
|
|Guitar 2      
|-------------------------|-------------------------|
|-------------------------|-------------------------|
|-15-15-15-15-15-15-15-15-|-17-17-17-17-17-17-17-17-|      
|-------------------------|-------------------------|
|-13-13-13-13-13-13-13-13-|-15-15-15-15-15-15-15-15-|
|-------------------------|-------------------------|





|CHORUS 3
|Guitar 2   
|-------------------------|-------------------------|-------------------------| 
|-------------------------|-------------------------|-------------------------| 
|-------------------------|-------------------------|-------------------------|  
|--5--5--5--5--5--5--5--5-|--3--3--3--3--5--5--5--5-|--3--3--3--3--5--5--5--5-|
|--3--3--3--3--3--3--3--3-|--1--1--1--1--3--3--3--3-|--1--1--1--1--3--3--3--3-|
|-------------------------|-------------------------|-------------------------| 
|
|Guitar 2      
|-------------------------|-------------------------|-------------------------| 
|-------------------------|-------------------------|-------------------------| 
|-/1917-15h17p15-14151715-|-12-12-12-12-14-14-14-14-|-15-15-15-15-15-15-15-15-|        
|-------------------------|-------------------------|-------------------------| 
|-------------------------|-------------------------|-------------------------| 
|-------------------------|-------------------------|-------------------------|




****************************************************************************************



(3:27)
|OUTRO
|Guitar 1  
|------------------------------------------|-----------------------------------------------|
|------------------------------------------|-----------------------------------------------|
|------------------------------------------|-----------------------------------------------|       
|------------------------------------------|-----------------------------------------------|
|------------------------------------------|-----------------------------------------------|
|-0--0h2h3-0---0h3p2-0---0h2h3-5--5--5-3-2-|-0---0h2h3-0----0h3p2-0---0h2h3-5-55-3-2---0---|
|Let ring                                                                         Let ring out
|
|Guitar 2  
|------------------------------------------|-----------------------------------------------|
|------------------------------------------|-----------------------------------------------|
|------------------------------------------|-----------------------------------------------|       
|------------------------------------------|-----------------------------------------------|
|------------------------------------------|-----------------------------------------------|
|-0--0h2h3-0---0h3p2-0---0h2h3-5--5--5-3-2-|-0---0h2h3-0----0h3p2-0---0h2h3-5-55-3-2--0----|
|Let ring                                                                         Let ring out





|ALL MUSIC WRITEN BY LOSING SEPTEMBER|
Suggest correction
Give kudos to tab author, rate the tab!
1 2 3 4 5
comments
print report bad tab
guest
You may want to rate the tab now too:
select rating
Wanna post a correction for this tab? Suggest correction