Oops, an error
Loading. Please wait.

Warthog Tab

37 views 1 this week
no commentswrite comment
1 2 3 4 5
3 more votes to show rating
add to favorites
launch autoscroll
font size
0
reset
how to read this tab
guitar tuner
×
Best way to learn
"Warthog"
Autoscroll
slow
fast
+/-
esc
set tempo
stop
Author
Difficulty
Tuning
advanced
B F# B E G# C#
-------------------------------------------------------------------------------
                            Warthog - Losing September
-------------------------------------------------------------------------------


Losing September
"Warthog"
ALBUM - There Will Be Casualties
2010 Fidelity Entertainment
Website: www.losingseptember.com
Facebook: www.facebook.com/musicforlosers
YouTube: https://www.youtube.com/watch?v=lulfHNyDuXQ 
Tabbed by: RiseOfRock9



************************************

| /   slide up
| \   slide down
| h   hammer-on
| p   pull-off
| v   vibrato
| +   harmonic
| *   Pinch Harmonic
| x   Mute note
| b   Bend
| pb  Pre-bend
| br  Bend release
| pbr Pre-bend release
| brb Bend release bend

************************************


Tuning: Drop B       B-F#-B-E-G#-C# 

 
Guitar 1 is the rhythm guitar.
Guitar 2 is the lead guitar.




  |INTRO / SOLO 1 
  |Guitar 2
C#|----------------------|----------------------|----------------------------|
G#|----------------------|----------------------|----------------------------|
E |-----------------5-57-|----------------3--35-|----------------------------|    
B |-------7557-8757--5---|------5335-7537---5---|------77-------88-----8757--|
F#|--5555----------------|-3333-----------------|----------------------------|
B |----------------------|----------------------|-5555------55------55-------|
  |PM.... .... ....  .     .... .... ....  .      ....      ..      ..



|SOLO 1
|Guitar 1
|-------------------------------|
|-------------------------------|
|-------------------------------|
|-------------------------------|
|---88-----------88----1010-----|
|---88-----------88----1010-----|
|PM.                         
|
|Guitar 2
|-------------------------------|
|-----------------------8--8h10-|
|---------7--79--10979----9-----|  
|-/10878----8-------------------|
|-------------------------------|
|-------------------------------|
PM.....     .    ....


|SOLO 1
|Guitar 1
|-----------------------|-----------------------|----------------------------|
|-----------------------|-----------------------|----------------------------|
|-----------------7/9---|-55--------------------|-77-------------------------|
|-----------------------|-----------------------|-77-------------------------|
|-55--------------5/7---|-33--------------------|-55-------------------------|
|-55--------------------|-----------------------|----------------------------|
|
|Guitar 2
|-----------------------|-----------------------|----------------------------|
|-----------------------|-----------------------|----------------------------|
|-----------------5--57-|-----------------3--35-|----------------------------|    
|------7557-8757----5---|------5335-7537----5---|------77-------88-----8757--|
|-5555------------------|-3333------------------|----------------------------|
|-----------------------|-----------------------|-5555------55------55-------|
PM.... .... ....    .     .... .... ....    .     ....      ..      ..




|SOLO 1
|Guitar 1
|-------------------------|
|-------------------------|
|-10--9--7--5--7--9--7--5-|
|-------------------------|
|--8--7--5--3--5--7--5--3-|
|-------------------------|
|                         
|
|Guitar 2
|-------------------------|
|-------------------------|
|-------------------------|  
|--------5x55-------------|
|--8757--------8757-------|
|--------------------8757-|
PM ....        ....  ....




|SOLO 1
|Guitar 1
|---------------------|---------------------|-------------------------|
|---------------------|---------------------|-------------------------|
|-7---------------7/9-|-5-------------------|-10----------------------|
|---------------------|---------------------|-------------------------|
|-5---------------5/7-|-3-------------------|-8-----------------------|
|---------------------|---------------------|-------------------------|
|Let ring
|
|Guitar 2
|---------------------|---------------------|-------------------------|
|---------------------|---------------------|-------------------------|
|---------------------|---------------------|-------------------------|    
|------7777-5555-8888-|------5555-3333-7777-|------8888-7777-10101010-|
|-5555----------------|-3333----------------|-------------------------|
|---------------------|---------------------|-5555--------------------|
|Let Ring




|SOLO 1 
|Guitar 1
|-------------------------|
|-------------------------|
|-10--9--7--5--7--9--7--5-|
|-------------------------|
|--8--7--5--3--5--7--5--3-|
|-------------------------|
|                        
|
|Guitar 2
|-------------------------------|
|-------------------------------|
|-------------------------------|
|------10101010--------15151515-|
|-------------------------------|
|--8888--------10101010---------|
PM....          .......




|SOLO 1
|Guitar 1
|-------------------------------------|-------------------------------------|
|-------------------------------------|-------------------------------------|
|--7------777------777-----777/9------|-5-------555------555-----555-----55-|
|--7------777------777----------------|-5-------555------555-----555-----55-|
|--5------555------555-----555/7------|-3-------333------333-----333-----33-|
|-------------------------------------|-------------------------------------|                       
|
|
|Guitar 2
|-------------------------------------|-------------------------------------|
|-------------------------------------|-------------------------------------|
|----------------------------12--1214-|----------------------------14--1415-|    
|----------12--1214-15141214---14-----|----------14--1415-17151415---15-----|
|-13121213---13-----------------------|-15131315---15-----------------------|
|-------------------------------------|-------------------------------------|
PM.........................             ..........................




|SOLO 1
|Guitar 1
|----------------------------------------|---------------------------------|
|----------------------------------------|---------------------------------|
|-10----101010----101010----101010--1010-|---------------------------------|    
|-10----101010----101010----101010--1010-|-10---9---7---5---7---9---7---5--|
|--8-----8-8-8-----8-8-8-----8-8-8---8-8-|--8---7---5---3---5---7---5---3--|
|----------------------------------------|---------------------------------|                         
|
|
|Guitar 2
|----------------------------------------|----------------------------15--1517-|
|----------------------------------------|----------15--1517-18171517---17-----|
|-------------------------------15--1517-|-19171517---17-----------------------|
|-----------15--1517--19171517----17-----|-------------------------------------|
|-17151517----17-------------------------|-------------------------------------|
|----------------------------------------|-------------------------------------|
PM...........................        




|SOLO 1
|Guitar 1
|-------------------------------------|-------------------------------------|
|-------------------------------------|-------------------------------------|
|--7------777------777-----777/9------|-5-------555------555-----555-----55-|
|--7------777------777----------------|-5-------555------555-----555-----55-|
|--5------555------555-----555/7------|-3-------333------333-----333-----33-|
|-------------------------------------|-------------------------------------|                        
|
|Guitar 2
|-18171518----------15X1515-----------|-15131213----------12X1212-----------|
|----------18171517---------18171517--|----------15131213---------15131213--|
|-------------------------------------|-------------------------------------|
|-------------------------------------|-------------------------------------|
|-------------------------------------|-------------------------------------|
|-------------------------------------|-------------------------------------|





|SOLO 1
|Guitar 1
|-------------------------------------|-------------------------------------|
|-------------------------------------|-------------------------------------|
|-------------------------------------|-------------------------------------|    
|-10---101010---101010---101010--1010-|-12---12---12--12---14--14---15--15--|
|--8----8-8-8----8-8-8----8-8-8---8-8-|-10---10---10--10---12--12---13--13--|
|-------------------------------------|-------------------------------------|                         
|
|Guitar 2
|-13121012-15121012-13121012-15121012-|-15131213-17151315-18171517-20181718-|
|-------------------------------------|-------------------------------------|
|-------------------------------------|-------------------------------------|
|-------------------------------------|-------------------------------------|
|-------------------------------------|-------------------------------------|
|-------------------------------------|-------------------------------------|





|SOLO 1
|Guitar 1
|--------------------------------|-----------------------------------------|
|--------------------------------|-----------------------------------------|
|--------------------------------|-----------------------------------------|    
|-14--14--14--14--14--14--15--15-|-----------------------------------------|
|-12--12--12--12--12--12--13--13-|--10---10---10---10---10---10---12---12--|
|--------------------------------|-----------------------------------------|
|PM.                         
|
|Guitar 2
|-20b-------------20b------------|-20br-201817h18p17---17182018-17h18p17h18p17-|
|--------------------------------|-------------------20------------------------|
|--------------------------------|---------------------------------------------|
|--------------------------------|---------------------------------------------|
|--------------------------------|---------------------------------------------|
|--------------------------------|---------------------------------------------|





|SOLO 1
|Guitar 1
|--------------------------|-------------------------|
|--------------------------|-------------------------|
|--------------------------|-------------------------|    
|-10-10-10-10-10-10-10-10--|-10--9--7--5--7--9--7--5-|
|--8--8--8--8--8--8--8--8--|--8--7--5--3--5--7--5--3-|
|--------------------------|-------------------------|
|PM.                         
| 
|Guitar 2
|-17v--------------(17v)---|-18-17----------17-------|
|--------------------------|-------20-18-20----20-18-|
|--------------------------|-------------------------|
|--------------------------|-------------------------|
|--------------------------|-------------------------|
|--------------------------|-------------------------|





|SOLO 1
|Guitar 1
|------------------------------------|-------------------------------------------------|
|------------------------------------|-------------------------------------------------|
|--7------777------777-----777/9-----|--5-------555---------555--------555--------55---|
|--7------777------777---------------|--5-------555---------555--------555--------55---|
|--5------555------555-----555/7-----|--3-------333---------333--------333--------33---|
|------------------------------------|-------------------------------------------------|  
|
|Guitar 2
|-----17h22p17----------17h22p17-----|-----17h18h20p18p17h18p17\15h17h18p17p15h17p15---|
|---18--------18------18--------18---|---18-----------------------------------------18-|
|-19------------19--19------------19-|-19----------------------------------------------|    
|------------------------------------|-------------------------------------------------|
|------------------------------------|-------------------------------------------------|
|------------------------------------|-------------------------------------------------|





|SOLO 1
|Guitar 1
|-------------------------------------|---------------------------------|
|-------------------------------------|---------------------------------|
|-10---101010---101010---101010--1010-|---------------------------------|    
|-10---101010---101010---101010--1010-|-10---9---7---5---7---9---7---5--|
|--8----8-8-8----8-8-8----8-8-8---8-8-|--8---7---5---3---5---7---5---3--|
|-------------------------------------|---------------------------------|
|
|Guitar 2
|-17v-----18-18/20v------18p17---/22v-|-(20v)---------------------------|
|------------------------------20-----|---------------------------------|
|-------------------------------------|---------------------------------|
|-------------------------------------|---------------------------------|
|-------------------------------------|---------------------------------|
|-------------------------------------|---------------------------------|



****************************************************************************************************



|BRIDGE 1
|Guitar 1
|------------------------|------------------------|
|------------------------|------------------------|
|------------------------|------------------------|    
|------------------------|------------------------|
|------------------------|------------------------|
|-00003p0-00-0-0-3p0-3p0-|-00003p0-00-0-0-3p0-3p0-|
PM....    .. . .           ....    .. . .
|
|Guitar 2
|------------------------|------------------------|
|------------------------|------------------------|
|------------------------|------------------------|    
|-0----------------------|-(0)--------------------|
|-0----------------------|-(0)--------------------|
|-0----------------------|-(0)--------------------|




|BRIDGE 1 
|Guitar 1
|------------------------|------------------------|
|------------------------|------------------------|
|------------------------|------------------------|    
|------------------------|--------------PAUSE-----|
|------------------------|------------------------|
|-00003p0-00-0-0-3p0-3p0-|-00003p0-00-------------|
PM....    .. . .           ....    .. 
|
|Guitar 2
|------------------------|------------------------|
|------------------------|------------------------|
|------------------------|------------------------|    
|------------------------|--------------PAUSE-----|
|------------------------|------------------------|
|-00003p0-00-0-0-3p0-3p0-|-00003p0-00-------------|
PM....    .. . .           ....    .. 



****************************************************************************************************



(1:11)
|CHORUS 1 
|Guitar 1
|------------------------|------------------------|
|------------------------|------------------------|
|------------------------|------------------------|    
|-0-----------0----------|-3------------3---------|
|-0-----------0----------|-3------------3---------|
|-0-----------0----------|-3------------3---------|
|
|Guitar 2
|------------------------|------------------------|
|------------------------|------------------------|
|-10v---------10p9-------|------------------------|
|------------------12p10-|-10v--------------------|
|------------------------|------------------------|
|------------------------|------------------------|




|CHORUS 1 
|Guitar 1
|-------------------------|---------------------------|
|-------------------------|---------------------------|
|-------------------------|---------------------------|    
|-5-----------------------|-5-------------------------|
|-5-----------------------|-5-------------------------|
|-5-----------------------|-5-------------------------|
|
|Guitar 2
|-------------------------|---------------------------|
|-------------------------|---------------------------|
|-------------------------|---------------------------|    
|-12v---------------------|-14-----12-----14-----15---|
|-------------------------|---------------------------|
|-------------------------|---------------------------|




|CHORUS 1 
|Guitar 1
|-------------------------------------|-------------------------------------|
|-------------------------------------|-------------------------------------|
|-------------------------------------|-------------------------------------|    
|--8---8---8---8----8---8----8---8----|--10--10---10--10---10--10---10--10--|
|--8---8---8---8----8---8----8---8----|--10--10---10--10---10--10---10--10--|
|--8---8---8---8----8---8----8---8----|--10--10---10--10---10--10---10--10--|
|
|Guitar 2
|-------------------------------------|-------------------------------------|
|-------------------------------------|-------------------------------------|
|-------------------------------------|-------------------------------------|    
|-----------------12121212-14p1214/15-|-----------------14141414-15p1415/17-|
|-1313131313131313--------------------|-1515151515151515--------------------|
|-------------------------------------|-------------------------------------|
PM................                      ................



|CHORUS 1 
|Guitar 1
|-----------------------------------|---------------------------------|
|-----------------------------------|---------------------------------|
|-----------------------------------|---------------------------------|    
|-5----------------5----------------|-5------------------5------------|
|-5----------------5----------------|-5------------------5------------|
|-5----------------5----------------|-5------------------5------------|
|
|Guitar 2
|-----------------------------------|---------------------------------|
|-----------------------------------|---------------------------------|
|-----------------------------------|----------------------------9999-|    
|-----------------15151515-17171717-|-14141414-15151515-12121212------|
|-1717171717171717------------------|---------------------------------|
|-----------------------------------|---------------------------------|
PM................



|CHORUS 1 
|Guitar 1
|------------------------------|----------------------------------|
|------------------------------|----------------------------------|
|------------------------------|----------------------------------|    
|-0--------------0-------------|-3----------------3---------------|
|-0--------------0-------------|-3----------------3---------------|
|-0--------------0-------------|-3----------------3---------------|
|
|Guitar 2
|------------------------------|----------------------------------|
|------------------------------|----------------------------------|
|-101099--------101099---------|-12121010--------12121010---------|    
|-------12121010------12121010-|---------14141212--------14141212-|
|------------------------------|----------------------------------|
|------------------------------|----------------------------------|
PM................................................................



|CHORUS 1 
|Guitar 1
|-------------------------|-------------------------|
|-------------------------|-------------------------|
|-------------------------|-------------------------|    
|-5------------5----------|-5------------5----------|
|-5------------5----------|-5------------5----------|
|-5------------5----------|-5------------5----------|
|
|Guitar 2
|-------------------------|-------------------------|
|-------------------------|-------------------------|
|-9977--------9977--------|-9977--------9977--------|
|------101099------101099-|------101099------101099-|
|-------------------------|-------------------------|
|-------------------------|-------------------------|
PM..................................................




|CHORUS 1 
|Guitar 1
|-----------------------------|---------------------------------|
|-----------------------------|---------------------------------|
|-----------------------------|---------------------------------|    
|--8--------8-----8-------8---|-10-------10-------10-------10---|
|--8--------8-----8-------8---|-10-------10-------10-------10---|
|--8--------8-----8-------8---|-10-------10-------10-------10---|
|
|Guitar 2
|-----------------------------|---------------------------------|
|-----------------------------|---------------------------------|
|-10101010-9999-12121212-7777-|-12121212-10101010-14141414-9999-|    
|-----------------------------|---------------------------------|
|-----------------------------|---------------------------------|
|-----------------------------|---------------------------------|




|CHORUS 1 
|Guitar 1
|-------------------------------------|------------------------------------------|
|-------------------------------------|------------------------------------------|
|-------------------------------------|------------------------------------------|    
|-5------------------5----------------|--5-----------------5---------------------|
|-5------------------5----------------|--5-----------------5---------------------|
|-5------------------5----------------|--5-----------------5---------------------|
|
|Guitar 2
|-------------------------------------|-------------------1818181817h18h20p18p17-|
|-------------------------------------|-18181818-17171717------------------------|
|-15151515-14141414-15151515-17171717-|------------------------------------------|    
|-------------------------------------|------------------------------------------|
|-------------------------------------|------------------------------------------|
|-------------------------------------|------------------------------------------|




****************************************************************************************************




(1:47)
|BRIDGE 2
|Guitar 1
|------------------------|------------------------|
|------------------------|------------------------|
|------------------------|------------------------|    
|------------------------|------------------------|
|------------------------|------------------------|
|-00003p0-00-0-0-3p0-3p0-|-00003p0-00-0-0-3p0-3p0-|
PM....    .. . .           ....    .. . .
|
|Guitar 2
|-17v--------------------|------------------------|
|------------------------|-18v--------------------|
|------------------------|------------------------|    
|------------------------|------------------------|
|------------------------|------------------------|
|------------------------|------------------------|




|BRIDGE 2
|Guitar 1
|------------------------|------------------------|
|------------------------|------------------------|
|------------------------|------------------------|    
|------------------------|--------------PAUSE-----|
|------------------------|------------------------|
|-00003p0-00-0-0-3p0-3p0-|-00003p0-00-------------|
PM....    .. . .           ....    .. 
|
|Guitar 2
|------------------------|------------------------|
|-17v--------17h18p17p15-|-15v--------------------|
|------------------------|------------------------|    
|------------------------|------------------------|
|------------------------|------------------------|
|------------------------|------------------------|



****************************************************************************************************


(1:56)
|VERSE 1
|Guitar 1
|------------------------|------------------------|
|------------------------|------------------------|
|------------------------|------------------------|    
|------------------------|------------------------|
|------------------------|------------------------|
|-00003p0-00-0-0-3p0-3p0-|-00003p0-00-0-0-3p0-3p0-|
PM....    .. . .           ....    .. . .




|VERSE 1
|Guitar 1
|------------------------|------------------------|
|------------------------|------------------------|
|------------------------|------------------------|    
|------------------------|------------------------|
|------------------------|------------------------|
|-00003p0-00-0-0-3p0-3p0-|-00003p0-00-0-0-3p0-3p0-|
PM....    .. . .           ....    .. . .




|VERSE 1
|Guitar 1
|------------------------|------------------------|
|------------------------|------------------------|
|------------------------|------------------------|    
|------------------------|------------------------|
|------------------------|------------------------|
|-00003p0-00-0-0-3p0-3p0-|-00003p0-00-0-0-3p0-3p0-|
PM....    .. . .           ....    .. . .
|
|Guitar 2
|------------------------|------------------------|
|------------------------|------------------------|
|------------------------|------------------------|    
|-3----------------------|-5----------------------|
|-1----------------------|-3----------------------|
|------------------------|------------------------|




|VERSE 1
|Guitar 1
|------------------------|------------------------|
|------------------------|------------------------|
|------------------------|------------------------|    
|------------------------|------------------------|
|------------------------|------------------------|
|-00003p0-00-0-0-3p0-3p0-|-00003p0-00-0-0-3p0-3p0-|
PM....    .. . .           ....    .. . .
|
|Guitar 2
|------------------------|------------------------|
|------------------------|------------------------|
|------------------------|------------------------|    
|------------------------|------------------------|
|-5----------------------|-5----------------------|
|-5----------------------|-5----------------------|



 
|VERSE 1
|Guitar 1
|------------------------|------------------------|
|------------------------|------------------------|
|------------------------|------------------------|    
|------------------------|------------------------|
|------------------------|------------------------|
|-00003p0-00-0-0-3p0-3p0-|-00003p0-00-0-0-3p0-3p0-|
PM....    .. . .           ....    .. . .
|
|Guitar 2
|------------------------|------------------------|
|------------------------|------------------------|
|------------------------|------------------------|    
|------------------------|------------------------|
|-000000000--------------|-333333333--------------|
|-000000000--------------|-333333333--------------|
PM.........                .........



|VERSE 1
|Guitar 1
|------------------------|------------------------|
|------------------------|------------------------|
|------------------------|------------------------|    
|------------------------|------------------------|
|------------------------|------------------------|
|-00003p0-00-0-0-3p0-3p0-|-00003p0-00-0-0-3p0-3p0-|
PM....    .. . .           ....    .. . .
|
|Guitar 2
|------------------------|------------------------|
|------------------------|------------------------|
|------------------------|------------------------|    
|------------------------|------------------------|
|-555555555--------------|-555555555--------------|
|-555555555--------------|-555555555--------------|
PM.........                .........



|VERSE 1
|Guitar 1
|------------------------|------------------------|
|------------------------|------------------------|
|------------------------|------------------------|    
|------------------------|------------------------|
|------------------------|------------------------|
|-00003p0-00-0-0-3p0-3p0-|-00003p0-00-0-0-3p0-3p0-|
PM....    .. . .           ....    .. . .
|
|Guitar 2
|------------------------|------------------------|
|------------------------|------------------------|
|------------------------|------------------------|    
|------------------------|------------------------|
|-888888888--------------|-101010101010101010-----|
|-888888888--------------|-101010101010101010-----|
PM.........                ..................




|VERSE 1
|Guitar 1
|------------------------|------------------------|
|------------------------|------------------------|
|------------------------|------------------------|    
|------------------------|------------------------|
|------------------------|------------------------|
|-00003p0-00-0-0-3p0-3p0-|-00003p0-00-0-0-3p0-3p0-|
PM....    .. . .           ....    .. . .
|
|Guitar 2
|------------------------|------------------------|
|------------------------|------------------------|
|------------------------|------------------------|    
|------------------------|------------------------|
|-555555555--------------|-555555555-----------5\-|
|-555555555--------------|-555555555-----------5\-|
PM.........                .........



****************************************************************************************************



(2:31)
|CHORUS 2
|Guitar 1
|------------------------|------------------------|
|------------------------|------------------------|
|------------------------|------------------------|    
|-0-----------0----------|-3------------3---------|
|-0-----------0----------|-3------------3---------|
|-0-----------0----------|-3------------3---------|
|
|Guitar 2
|------------------------|------------------------|
|------------------------|------------------------|
|-10v---------10p9-------|------------------------|
|------------------12p10-|-10v--------------------|
|------------------------|------------------------|
|------------------------|------------------------|




|CHORUS 2 
|Guitar 1
|-------------------------|---------------------------|
|-------------------------|---------------------------|
|-------------------------|---------------------------|    
|-5-----------------------|-5-------------------------|
|-5-----------------------|-5-------------------------|
|-5-----------------------|-5-------------------------|
|
|Guitar 2
|-------------------------|---------------------------|
|-------------------------|---------------------------|
|-------------------------|---------------------------|    
|-12v---------------------|-14-----12-----14-----15---|
|-------------------------|---------------------------|
|-------------------------|---------------------------|




|CHORUS 2 
|Guitar 1
|-------------------------------------|-------------------------------------|
|-------------------------------------|-------------------------------------|
|-------------------------------------|-------------------------------------|    
|--8---8---8---8----8---8----8---8----|--10--10---10--10---10--10---10--10--|
|--8---8---8---8----8---8----8---8----|--10--10---10--10---10--10---10--10--|
|--8---8---8---8----8---8----8---8----|--10--10---10--10---10--10---10--10--|
|
|Guitar 2
|-------------------------------------|-------------------------------------|
|-------------------------------------|-------------------------------------|
|-------------------------------------|-------------------------------------|    
|-----------------12121212-14p1214/15-|-----------------14141414-15p1415/17-|
|-1313131313131313--------------------|-1515151515151515--------------------|
|-------------------------------------|-------------------------------------|
PM................                      ................



|CHORUS 2 
|Guitar 1
|-----------------------------------|---------------------------------|
|-----------------------------------|---------------------------------|
|-----------------------------------|---------------------------------|    
|-5----------------5----------------|-5------------------5------------|
|-5----------------5----------------|-5------------------5------------|
|-5----------------5----------------|-5------------------5------------|
|
|Guitar 2
|-----------------------------------|---------------------------------|
|-----------------------------------|---------------------------------|
|-----------------------------------|----------------------------9999-|    
|-----------------15151515-17171717-|-14141414-15151515-12121212------|
|-1717171717171717------------------|---------------------------------|
|-----------------------------------|---------------------------------|
PM...............



|CHORUS 2 
|Guitar 1
|------------------------------|----------------------------------|
|------------------------------|----------------------------------|
|------------------------------|----------------------------------|    
|-0--------------0-------------|-3----------------3---------------|
|-0--------------0-------------|-3----------------3---------------|
|-0--------------0-------------|-3----------------3---------------|
|
|Guitar 2
|------------------------------|----------------------------------|
|------------------------------|----------------------------------|
|-101099--------101099---------|-12121010--------12121010---------|    
|-------12121010------12121010-|---------14141212--------14141212-|
|------------------------------|----------------------------------|
|------------------------------|----------------------------------|
PM................................................................



|CHORUS 2 
|Guitar 1
|-------------------------|-------------------------|
|-------------------------|-------------------------|
|-------------------------|-------------------------|    
|-5------------5----------|-5------------5----------|
|-5------------5----------|-5------------5----------|
|-5------------5----------|-5------------5----------|
|
|Guitar 2
|-------------------------|-------------------------|
|-------------------------|-------------------------|
|-9977--------9977--------|-9977--------9977--------|
|------101099------101099-|------101099------101099-|
|-------------------------|-------------------------|
|-------------------------|-------------------------|
PM..................................................



|CHORUS 2 
|Guitar 1
|-----------------------------|---------------------------------|
|-----------------------------|---------------------------------|
|-----------------------------|---------------------------------|    
|--8--------8-----8-------8---|-10-------10-------10-------10---|
|--8--------8-----8-------8---|-10-------10-------10-------10---|
|--8--------8-----8-------8---|-10-------10-------10-------10---|
|
|Guitar 2
|-----------------------------|---------------------------------|
|-----------------------------|---------------------------------|
|-10101010-9999-12121212-7777-|-12121212-10101010-14141414-9999-|    
|-----------------------------|---------------------------------|
|-----------------------------|---------------------------------|
|-----------------------------|---------------------------------|




|CHORUS 2
|Guitar 1
|-------------------------------------|------------------------------------------|
|-------------------------------------|------------------------------------------|
|-------------------------------------|------------------------------------------|    
|-5------------------5----------------|--5-----------------5---------------------|
|-5------------------5----------------|--5-----------------5---------------------|
|-5------------------5----------------|--5-----------------5---------------------|
|
|Guitar 2
|-------------------------------------|-------------------1818181817h18h20p18p17-|
|-------------------------------------|-18181818-17171717------------------------|
|-15151515-14141414-15151515-17171717-|------------------------------------------|    
|-------------------------------------|------------------------------------------|
|-------------------------------------|------------------------------------------|
|-------------------------------------|------------------------------------------|




****************************************************************************************************



(3:06)
|BRIDGE 3
|Guitar 1
|-------------------------------------|-------------------------------------|
|-------------------------------------|-------------------------------------|
|--7------777------777-----777/9------|-5-------555------555-----555-----55-|
|--7------777------777----------------|-5-------555------555-----555-----55-|
|--5------555------555-----555/7------|-3-------333------333-----333-----33-|
|-------------------------------------|-------------------------------------|                       
|
|
|Guitar 2
|-/22-----------------------(22)------|--------------------(22)-------------|
|-------------------------------------|-------------------------------------|
|-------------------------------------|-------------------------------------|
|-------------------------------------|-------------------------------------|
|-------------------------------------|-------------------------------------|
|-------------------------------------|-------------------------------------|




|BRIDGE 3
|Guitar 1
|---------------------------------------|---------------------------------|
|---------------------------------------|---------------------------------|
|-10---101010----101010----101010--1010-|---------------------------------|    
|-10---101010----101010----101010--1010-|-10---9---7---5---7---9---7---5--|
|--8----8-8-8-----8-8-8-----8-8-8---8-8-|--8---7---5---3---5---7---5---3--|
|---------------------------------------|---------------------------------| 
|
|
|Guitar 2
|-(22)----------------------------------|-(22)----------------------------|
|---------------------------------------|---------------------------------|
|---------------------------------------|---------------------------------|
|---------------------------------------|---------------------------------|
|---------------------------------------|---------------------------------|
|---------------------------------------|---------------------------------|



****************************************************************************************************


(3:15)
|SOLO 2
|Guitar 1
|-------------------------------------|-------------------------------------|
|-------------------------------------|-------------------------------------|
|--7------777------777-----777/9------|-5-------555------555-----555-----55-|
|--7------777------777----------------|-5-------555------555-----555-----55-|
|--5------555------555-----555/7------|-3-------333------333-----333-----33-|
|-------------------------------------|-------------------------------------|                       
|
|
|Guitar 2
|---------10v-------------------------|---------12v-------------------------|
|-------11----------------------------|-------11----------------------------|
|-----10------------------------------|-----12------------------------------|
|---12--------------------------------|---10--------------------------------|
|-12----------------------------------|-10----------------------------------|
|-------------------------------------|-------------------------------------|
PM.....                                 .....



|SOLO 2
|Guitar 1
|---------------------------------------|---------------------------------|
|---------------------------------------|---------------------------------|
|-10---101010----101010----101010--1010-|---------------------------------|    
|-10---101010----101010----101010--1010-|-10---9---7---5---7---9---7---5--|
|--8----8-8-8-----8-8-8-----8-8-8---8-8-|--8---7---5---3---5---7---5---3--|
|---------------------------------------|---------------------------------| 
|
|
|Guitar 2
|---------13-------12--------13---------|-15--------------17--------------|
|-------13------------------------------|---------------------------------|
|-----12--------------------------------|---------------------------------|
|---14----------------------------------|---------------------------------|
|-15------------------------------------|---------------------------------|
|---------------------------------------|---------------------------------|
PM.....



|SOLO 2
|Guitar 1
|-------------------------------------|-----------------------------------|
|-------------------------------------|-----------------------------------|
|-------------------------------------|-----------------------------------|
|--7---7----7---7----7---7----7---7---|--5---5----5---5----5---5----5---5-|
|--5---5----5---5----5---5----5---5---|--3---3----3---3----3---3----3---3-|
|-------------------------------------|-----------------------------------|                       
|
|Guitar 2
|-------------------------------------|-----------------------------------|
|-------------------------------------|-----------------------------------|
|-------------------------------------|-----------------------------------|
|----------12x1214----------12x1214---|----------14x1415----------14x1415-|
|-13121213---------13121213-----------|-15131315---------15131315---------|
|-------------------------------------|-----------------------------------|
PM........         ........             ........         ........



|SOLO 2
|Guitar 1
|---------------------------------------|-----------------------------------|
|---------------------------------------|-----------------------------------|
|---------------------------------------|-----------------------------------|    
|-10---10---10---10---10---10---10--10--|---7---7---7---7---9---9---9---9---|
|--8----8----8----8----8----8----8---8--|---5---5---5---5---7---7---7---7---|
|---------------------------------------|-----------------------------------| 
|
|Guitar 2
|---------------------------------------|-----------------------------------|
|---------------------------------------|-----------------------------------|
|---------------------------------------|---------------------------15x1515-|
|-----------15x1517-----------15x1517---|----------15x1515-17151517---------|
|-17151517-----------17151517-----------|-17151517--------------------------|
|---------------------------------------|-----------------------------------|
PM........           .......              ........          .......



|SOLO 2
|Guitar 1
|--------------------------------------|-----------------------------------|
|--------------------------------------|-----------------------------------|
|--------------------------------------|-----------------------------------|    
|--------------------------------------|-----------------------------------|
|--7----7----7----7----7----7----7---7-|---5---5---5---5---5---5---5---5---|
|--7----7----7----7----7----7----7---7-|---5---5---5---5---5---5---5---5---|                      
|
|Guitar 2
|----------20202020----------20202020-|----------18181818---------18181818-|
|-------------------------------------|------------------------------------|
|-17171717----------17171717----------|-15151515---------15151515----------|
|-------------------------------------|------------------------------------|
|-------------------------------------|------------------------------------|
|-------------------------------------|------------------------------------|
PM........          .........           ........          .........



|SOLO 2
|Guitar 1
|--------------------------------------|--------------------------------|
|--------------------------------------|--------------------------------|
|--------------------------------------|--------------------------------|    
|--------------------------------------|-10---9---7---5---7---9---7---5-|
|--3----3----3----3----3----3----3---3-|--8---7---5---3---5---7---5---3-|
|--3----3----3----3----3----3----3---3-|--------------------------------| 
|
|Guitar 2
|----------17171717----------17171717--|-/18--17-------------17---------|
|--------------------------------------|---------20--18--20-----20--18--|
|-14141414----------14141414-----------|--------------------------------|
|--------------------------------------|--------------------------------|
|--------------------------------------|--------------------------------|
|--------------------------------------|--------------------------------|
|--------------------------------------|--------------------------------|
PM........          .........        





****************************************************************************************************




(3:42)
|BRIDGE 3
|BASS ARRANGED FOR CELLO
|----------------------|-----------------|------------------|-------------------|
|----------------------|-----------------|------------------|-------------------|
|-5--------------------|-3---------------|------------------|-------------------|
|----------------------|-----------------|-5----------------|-5-----------------|






****************************************************************************************************




|CHORUS 3 
|Guitar 1
|-----------------------------|---------------------------------|
|-----------------------------|---------------------------------|
|-----------------------------|---------------------------------|    
|-10--8-----8-----8-------8---|-10-------10-------10-------10---|
|-10--8-----8-----8-------8---|-10-------10-------10-------10---|
|-10--8-----8-----8-------8---|-10-------10-------10-------10---|
|
|Guitar 2
|-----------------------------|---------------------------------|
|-----------------------------|---------------------------------|
|-12--10---10----10------10---|-12-------12-------12-------12---| 
|-----------------------------|---------------------------------|
|-10--8-----8-----8-------8---|-10-------10-------10-------10---|
|-----------------------------|---------------------------------|




|CHORUS 3 
|Guitar 1
|-------------------------|-------------------------|
|-------------------------|-------------------------|
|-------------------------|-------------------------|    
|-5-----5------5-----5----|-5-----5-----5-----5-----|
|-5-----5------5-----5----|-5-----5-----5-----5-----|
|-5-----5------5-----5----|-5-----5-----5-----5-----|
|
|Guitar 2
|-------------------------|-------------------------|
|-------------------------|-------------------------|
|-7-----7------7-----7----|-12---12----12----12-----|
|-------------------------|-------------------------|
|-5-----5------5-----5----|-10---10----10----10-----|
|-------------------------|-------------------------|




****************************************************************************************************



(4:00)
|CHORUS 3
|Guitar 1
|------------------------|------------------------|
|------------------------|------------------------|
|------------------------|------------------------|    
|-0-----------0----------|-3------------3---------|
|-0-----------0----------|-3------------3---------|
|-0-----------0----------|-3------------3---------|
|
|Guitar 2
|------------------------|------------------------|
|------------------------|------------------------|
|-10v---------10p9-------|------------------------|
|------------------12p10-|-10v--------------------|
|------------------------|------------------------|
|------------------------|------------------------|




|CHORUS 3 
|Guitar 1
|-------------------------|---------------------------|
|-------------------------|---------------------------|
|-------------------------|---------------------------|    
|-5-----------------------|-5-------------------------|
|-5-----------------------|-5-------------------------|
|-5-----------------------|-5-------------------------|
|
|Guitar 2
|-------------------------|---------------------------|
|-------------------------|---------------------------|
|-------------------------|---------------------------|    
|-12v---------------------|-14-----12-----14-----15---|
|-------------------------|---------------------------|
|-------------------------|---------------------------|




|CHORUS 3 
|Guitar 1
|-------------------------------------|-------------------------------------|
|-------------------------------------|-------------------------------------|
|-------------------------------------|-------------------------------------|    
|--8---8---8---8----8---8----8---8----|--10--10---10--10---10--10---10--10--|
|--8---8---8---8----8---8----8---8----|--10--10---10--10---10--10---10--10--|
|--8---8---8---8----8---8----8---8----|--10--10---10--10---10--10---10--10--|
|
|Guitar 2
|-------------------------------------|-------------------------------------|
|-------------------------------------|-------------------------------------|
|-------------------------------------|-------------------------------------|    
|-----------------12121212-14p1214/15-|-----------------14141414-15p1415/17-|
|-1313131313131313--------------------|-1515151515151515--------------------|
|-------------------------------------|-------------------------------------|
PM...............                       ...............



|CHORUS 3 
|Guitar 1
|-----------------------------------|---------------------------------|
|-----------------------------------|---------------------------------|
|-----------------------------------|---------------------------------|    
|-5----------------5----------------|-5------------------5------------|
|-5----------------5----------------|-5------------------5------------|
|-5----------------5----------------|-5------------------5------------|
|
|Guitar 2
|-----------------------------------|---------------------------------|
|-----------------------------------|---------------------------------|
|-----------------------------------|----------------------------9999-|    
|-----------------15151515-17171717-|-14141414-15151515-12121212------|
|-1717171717171717------------------|---------------------------------|
|-----------------------------------|---------------------------------|
PM...............                       



|CHORUS 3 
|Guitar 1
|------------------------------|----------------------------------|
|------------------------------|----------------------------------|
|------------------------------|----------------------------------|    
|-0--------------0-------------|-3----------------3---------------|
|-0--------------0-------------|-3----------------3---------------|
|-0--------------0-------------|-3----------------3---------------|
|
|Guitar 2
|------------------------------|----------------------------------|
|------------------------------|----------------------------------|
|-101099--------101099---------|-12121010--------12121010---------|    
|-------12121010------12121010-|---------14141212--------14141212-|
|------------------------------|----------------------------------|
|------------------------------|----------------------------------|
PM....  . . . .  . . . . . . .   . . . .  . . . . . . . . . . . .



|CHORUS 3
|Guitar 1
|-------------------------|-------------------------|
|-------------------------|-------------------------|
|-------------------------|-------------------------|    
|-5------------5----------|-5------------5----------|
|-5------------5----------|-5------------5----------|
|-5------------5----------|-5------------5----------|
|
|Guitar 2
|-------------------------|-------------------------|
|-------------------------|-------------------------|
|-9977--------9977--------|-9977--------9977--------|
|------101099------101099-|------101099------101099-|
|-------------------------|-------------------------|
|-------------------------|-------------------------|
PM..................................................



|CHORUS 3 
|Guitar 1
|-----------------------------|---------------------------------|
|-----------------------------|---------------------------------|
|-----------------------------|---------------------------------|    
|--8--------8-----8-------8---|-10-------10-------10-------10---|
|--8--------8-----8-------8---|-10-------10-------10-------10---|
|--8--------8-----8-------8---|-10-------10-------10-------10---|
|
|Guitar 2
|-----------------------------|---------------------------------|
|-----------------------------|---------------------------------|
|-10101010-9999-12121212-7777-|-12121212-10101010-14141414-9999-|    
|-----------------------------|---------------------------------|
|-----------------------------|---------------------------------|
|-----------------------------|---------------------------------|




|CHORUS 3 
|Guitar 1
|-------------------------------------|------------------------------------------|
|-------------------------------------|------------------------------------------|
|-------------------------------------|------------------------------------------|    
|-5------------------5----------------|--5-----------------5---------------------|
|-5------------------5----------------|--5-----------------5---------------------|
|-5------------------5----------------|--5-----------------5---------------------|
|
|Guitar 2
|-------------------------------------|-------------------1818181817h18h20p18p17-|
|-------------------------------------|-18181818-17171717------------------------|
|-15151515-14141414-15151515-17171717-|------------------------------------------|    
|-------------------------------------|------------------------------------------|
|-------------------------------------|------------------------------------------|
|-------------------------------------|------------------------------------------|



****************************************************************************************************



(4:35)
|OUTRO
|Guitar 1
|------------------------|------------------------|
|------------------------|------------------------|
|------------------------|------------------------|    
|------------------------|------------------------|
|------------------------|------------------------|
|-00003p0-00-0-0-3p0-3p0-|-00003p0-00-0-0-3p0-3p0-|
PM....    .. . .           ....    .. . . 
|
|Guitar 2
|-17v--------------------|------------------------|
|------------------------|-18v--------------------|
|------------------------|------------------------|    
|------------------------|------------------------|
|------------------------|------------------------|
|------------------------|------------------------|




|Guitar 1
|------------------------|------------------------|
|------------------------|------------------------|
|------------------------|------------------------|    
|------------------------|--------------PAUSE-----|
|------------------------|------------------------|
|-00003p0-00-0-0-3p0-3p0-|-00003p0-00-------------|
PM....    .. . .           ....    .. 
|Guitar 2
|------------------------|------------------------|
|-17v--------17h18p17p15-|-15v--------------------|
|------------------------|------------------------|    
|------------------------|------------------------|
|------------------------|------------------------|
|------------------------|------------------------|
|
|
|END


**************************************************************************************************** 
Suggest correction
Give kudos to tab author, rate the tab!
1 2 3 4 5
comments
print report bad tab
guest
You may want to rate the tab now too:
select rating
Wanna post a correction for this tab? Suggest correction