Oops, an error
Loading. Please wait.

Acapulco Golden Tab

4,738 views 3 this week
no commentswrite comment
1 2 3 4 5
1 last vote to show rating
add to favorites
launch autoscroll
font size
0
reset
how to read this tab
guitar tuner
Autoscroll
slow
fast
+/-
esc
set tempo
stop
Help us to improve Ultimate-Guitar.com Take our survey!
×
Intro
e---------------------------|
b---------------------------|
g---------------------------|
d---------------------------|
a------2-1-0---------14-----|
e-0-3--------3-0-----12-----|

e-------------------------------/
b-------------------------------/
g-16-12-------------------------/
d---------14-14-17-14-17--------/
a-------------------------------/
e-------------------------------/
2X

--------------------------------------------------------------------|
--------------------------------------------------------------------|
--16-12-------------------------------------------------------------|
----------14-14-17-14-17-14-14-14-14-14-14-14-14--------------------|
--------------------------------------------------------------------|
--------------------------------------------------------------------|
1x

e-12---------------------------------------------------------|
b-----12--10-12-10-------------------------------------------|
g----------------------9-9-7-7-9-9-12-12-9-9-7-9/5-----------|
d------------------------------------------------------------|
a------------------------------------------------------------|
e------------------------------------------------------------|

e------------------------------------------------------------------------|
b------------------------------------------------------------------------|
g------------------------------------------------------------------------|
d--2---------------------------------------------------------------------|
a--2----------2-1-0--------2-1-0--------2-1-0--------2-1-0---------------|
e--0-----0-3--------3-0-3--------3-0-3--------3-0-3--------3-0-----------|

e-----------------------------------------------------------------------|
b-----------------------------------------------------------------------|
g-----------------------------------------------------------------------|
d----------------------------------------5-5----------------------------|
a--7-7-7---7-5---7-7-7---7-5---7-7-----------7-7-5-5--7-7-7---7-5-------|
e-----------------------------------------------------------------------|

e---------------------------------------------------------------------------|
b---------------------------------------------------------------------------|
g---------------------------------------------------------------------------|
d----------------------------------------5-5----------------5-5-------------|
a--7-7-7---7-5---7-7-7---7-5---7-7-----------7-7-5-5-7-7--------7-7-5-7/1---|
e---------------------------------------------------------------------------|



e---------------------------------------------------------------------------|
b---------------------------------------------------------------------------|
g---------------------------------------------------------------------------|
d---------------------------------------------------------------------------|
a---------------------------------------------------------------------------|
e-0-0-0-0-0-0-0-0--3-3-3-3-3-3-3-3-5-5-5-5-5-5-5-5-5/7-5-3-5-0--------------|
El bajo hace este mismo riff y es el unico cambio que hay para el bajo.

e---------------------------------------------------------------------------|
b---------------------------------------------------------------------------|
g---------------------------------------------------------------------------|
d-2-2-2-2-2-2-2-2-5-5-5-5-5-5-5--5-7-7-7-7-7-7-7-7-7/9-7-5-7-------2--------|
a------------------------------------------------------------------2--------|
e------------------------------------------------------------------0--------|


e----------------------------------------------------------------------------|
b----------------------------------------------------------------------------|
g----------------------------------------------------------------------------|
d--2-------------------------------------------------------------------------|
a--2----------2-1-0--------2-1-0--------2-1-0--------2-1-0-------------------|
e--0-----0-3--------3-0-3--------3-0-3--------3-0-3--------3-0---------------|

e---------------------------------------------------------------------------|
b---------------------------------------------------------------------------|
g---------------------------------------------------------------------------|
d-----------2-1-0--------2-1h2h1h2h1h2---------------------------------2----|
a------0-3--------3-0-3--------------------2-1-0--------2-1-0----------2----|
e--------------------------------------0-3--------3-0-3--------3-0-----0----|

e------------------3-3-----|
b—-----5-5-3-3-5-5---------|
g--------------------------|
d--------------------------|
a--------------------------|
e--------------------------|
16X

|--3/5-5-5-5-5-5/7-7-7-7-7-7/10-10-10-10-10-10-10/12-12-12/0----------------|
|---------------------------------------------------------------------------|
|---------------------------------------------------------------------------|
|---------------------------------------------------------------------------|
|---------------------------------------------------------------------------|
|---------------------------------------------------------------------------|
                   …esta parte con pull-up


e----------0----------|
b----------0----------|
g----------0----------|
d--2-------2----------|
a--2-------2----------|
e--0-------0----------|
Suggest correction
Give kudos to tab author, rate the tab!
1 2 3 4 5
comments
print report bad tab
guest
You may want to rate the tab now too:
select rating
Wanna post a correction for this tab? Suggest correction