Oops, an error
Loading. Please wait.

Miradas De Amor tab

version 1
version 1

Whole song

  • First tabbed, please check my full cover acoustic,... Show more
151 views 6 this week
no commentswrite comment
1 2 3 4 5
3 more votes to show rating
add to favorites
×
Save as Personal and add changes to this tab that will be seen only by you. Learn more ›
×
You can save this tab as Personal to edit and correct it or add notes. All changes will be seen only by you. Learn more »
launch autoscroll
font size
0
reset
how to read this tab
guitar tuner
edit
Autoscroll
slow
fast
+/-
esc
set tempo
stop
Author
[Drums Intro]
  N.C.                 N.C.                 N.C.                 N.C.
e|--------------------|--------------------|--------------------|--------------------|
B|--------------------|--------------------|--------------------|--------------------|
G|--------------------|--------------------|--------------------|--------------------|
D|--------------------|--------------------|--------------------|--------------------|
A|--------------------|--------------------|--------------------|--------------------|
E|--------------------|--------------------|--------------------|--------------------|

[Verse]
  F                 Am              Bb        Bbm     F               G        Bbm               C 
                   \0.5/                       \0.5/                    ~~~
e|----------------|-------------0-|-1-----1-|-1-----|-1--1---1-3--1-|-1------|-1---------------|-------------|
B|--------------1-|-(1)---(1)-3---|-3--3----|-2-----|-1-------------|---3----|----2-----2------|-1-----------|
G|-----------2--2-|-(2)-----------|-3--3----|-3-----|-2-------------|--------|-------3-----2h3-|-0---3-2-0---|
D|(3)--3/5\3------|---------------|---------|-------|---------------|--------|-----------------|-----------2-|
A|----------------|---------------|---------|-------|---------------|--------|-----------------|-------------|
E|----------------|---------------|---------|-------|---------------|--------|-----------------|-------------|

   F               Am              Bb        Bbm     F            Dm      Bb      C
                   \0.5/                       \0.5/
e|---------------|-------------0-|-1-----1-|-1-----|-1--1--1----|-------|-----------------|
B|-------------1-|-(1)---(1)-3---|-3--3----|-2-----|-1--------1-|----3--|----3----1-------|
G|----------2--2-|-(2)-----------|-3--3----|-3-----|-2----------|-2----2|h3----3----3-2-0-|
D|-3--3/5\3------|---------------|---------|-------|------------|-------|-----------------|
A|---------------|---------------|---------|-------|------------|-------|-----------------|
E|---------------|---------------|---------|-------|------------|-------|-----------------|

[Bridge]
  F                  N.C.                    N.C.                  N.C.
e|------------------|-----------------------|---------------------|------------------------|
B|------------------|-----------------------|---------------------|------------------------|
G|------------------|-----------------------|---------------------|------------------------|
D|-3\---------------|-----------------------|---------------------|------------------------|
A|------------------|-----------------------|---------------------|------------------------|
E|------------------|-----------------------|---------------------|------------------------|

[Verse]
  F              Am        Bb          Bbm             F               G          Bbm         C
               ~~~~~
e|--------------|--------|-----------|---------------|---------------|----------|-----------|---------------|
B|-----------3-1|------1-|-----------|---------------|---------------|----------|--------6\-|-1--1-1-1h3--1-|
G|-------0h2----|----2---|-3---------|---------------|----------0--2-|-0--------|-3-3/6-----|---------------|
D|-3---3--------|--------|----3------|---------------|--2/3-3-3------|---0--2/3-|-----------|---------------|
A|--------------|--------|-------1/4-|-4--4-4-4\1--3-|---------------|----------|-----------|---------------|
E|--------------|--------|-----------|---------------|---------------|----------|-----------|---------------|

  F              Am         Bb         Bbm             F              Dm       Bb      C
               ~~~~~~
e|--------------|---------|----------|---------------|-1--1-3/5-3-1-|--------|-----------------|
B|-----------3-1|-------1-|----------|---------------|-1------------|----3---|----3----1-------|
G|-------0h2----|-----2---|-3----3/6-|-6--6-6-6\3-5\-|-2------------|-2-----2|h3----3----3-2-0-|
D|(3)--3--------|---------|----3-----|---------------|--------------|--------|-----------------|
A|--------------|---------|----------|---------------|--------------|--------|-----------------|
E|--------------|---------|----------|---------------|--------------|--------|-----------------|

   F        Am         Dm         Am            Dm      G          G                 Bbm          C
                                               ~~~~~
e|--------|----------|----------|-------------|-------|----------|-----------------|------------|------------|
B|--------|----------|----------|-------------|-------|-0--0--0--|-----3---5-3---3-|-2-2-2-4--2-|-1----------|
G|--------|---2--2h3-|-2-0------|-----2h3-2-0-|-2-----|-0--0--0--|-3/4---4-----4---|-3----------|-0--3-2-0---|
D|-3--5\2-|-2--------|-----3--2-|-2-----------|-------|----------|-----------------|-3----------|-2--------2-|
A|--------|----------|----------|---0---------|-------|----------|-----------------|------------|-3----------|
E|--------|----------|----------|-------------|-------|----------|-----------------|------------|------------|

   F              Am           Bb        Bbm      F     Dm      G        Bbm   C
              ~~~~~~                      \0.5/
e|--------------|----------0-|-1-------|-1------|-1--1--------|-3/5--3-|-------------|
B|--------------|--------1---|-3-----3-|-2------|-1-----3-----|------3-|-2-4-2-1-----|
G|------0h2-----|----(2)-----|-3--3----|-3------|-2--------2--|--------|-3-----------|
D|-3--3-----3-2-|------------|---------|--------|-------------|--------|-3-------3-2-|
A|--------------|------------|---------|--------|-------------|--------|-------------|
E|--------------|------------|---------|--------|-------------|--------|-------------|

[Drums solo]
  F                    N.C.
e|--------------------|--------------------|
B|--------------------|--------------------|
G|--------------------|--------------------|
D|-3------------------|--------------------|
A|--------------------|--------------------|
E|--------------------|--------------------|

[Verse]
  F                Am            Bb        Bbm      F             G        Bbm           C         
                  \0.5/                     \0.5/                   ~~~~~
e|---------------|-----------0-|-1-----1-|-1------|-1--1--1-3-1-|-1------|-1-----------|------------|
B|-------------1-|-(1)---1-3---|-3--3----|-2------|-1-----------|---3----|---2---2-----|-1----------|
G|-----------2-2-|-(2)---------|-3--3----|-2------|-2-----------|--------|-----3---2h3-|-0--3-2-0---|
D|(3)--3/5\3-----|-------------|---------|--------|-------------|--------|-------------|----------2-|
A|---------------|-------------|---------|--------|-------------|--------|-------------|------------|
E|---------------|-------------|---------|--------|-------------|--------|-------------|------------|

   F               Am            Bb        Bbm      F            Dm       Bb     C
                  \0.5/                     \0.5/
e|---------------|-----------0-|-1-----1-|-1------|-1--1--1----|--------|----------------|
B|-------------1-|-(1)---1-3---|-3--3----|-2------|-1--------1-|----3---|---3----1-------|
G|-----------2-2-|-(2)---------|-3--3----|-3------|-2----------|-2----2-|h3---3----3-2-0-|
D|-3--3/5\3------|-------------|---------|--------|------------|--------|----------------|
A|---------------|-------------|---------|--------|------------|--------|----------------|
E|---------------|-------------|---------|--------|------------|--------|----------------|

   F        Dm          Am     Dm            Am          G          G                 Bbm          C
                                              \0.5/
e|--------|-----------|------|-------------|-----------|----------|-----------------|------------|-----------|
B|--------|----3--3/6-|-5----|-6-6-6-6-----|-5---------|-0--0--0--|-----3---5-3---3-|-2-2-2-4--2-|-1---------|
G|--------|-2---------|----5-|-7-7-7-7-5-7-|-5------5\-|-0--0--0--|-3/4---4-----4---|-3----------|-0-3-2-0---|
D|-3--2h3-|-----------|------|-------------|-----------|----------|-----------------|-3----------|-2-------2-|
A|--------|-----------|------|-------------|-----------|----------|-----------------|------------|-3---------|
E|--------|-----------|------|-------------|-----------|----------|-----------------|------------|-----------|

   F               Am            Bb        Bbm      F     Dm      G         Bbm   C       F
                  \0.5/                     \0.5/                                         ~~~~~
e|---------------|-----------0-|-1-----1-|-1------|-1--1--------|-3/5--3--|-------------|-----------|
B|-------------1-|-(1)---1-3---|-3--3----|-2------|-1-----3-----|------3--|-2-4-2-1-----|-----------|
G|-----------2-2-|-(2)---------|-3--3----|-3------|-2--------2--|---------|-3-----------|-----------|
D|-3--3/5\3------|-------------|---------|--------|-------------|---------|-3-------3-2-|-3---------|
A|---------------|-------------|---------|--------|-------------|---------|-------------|-----------|
E|---------------|-------------|---------|--------|-------------|---------|-------------|-----------|

   F     Dm     G         Bbm   C       F           Bbm           F           Fmaj7

e|-1--1-------|-3/5--3--|-----------0-|-1--1------|------1------|--------1--|-5-------------------|
B|-1-----3----|------3--|-2-4-2-1-3---|-1-----1---|----2----2---|------1----|-5-------------------|
G|-2--------2-|---------|-3-----------|-2-------2-|-3---------3-|----2------|-5-------------------|
D|------------|---------|-3-----------|-----------|-------------|-3---------|---------------------|
A|------------|---------|-------------|-----------|-------------|-----------|---------------------|
E|------------|---------|-------------|-----------|-------------|-----------|---------------------|


************************************

| (n)  Ghost note
| h    Hammer-on
| /    Slide up
| \    Slide down
| ~    Vibrato
| \n/  - tremolo bar dip

************************************

            
            
Suggest correction
Creating personal tab
Creating personal tab
You can edit any tab online and save it as your Personal.

You can edit, replace or remove any tab part or add personal notes – all changes will be seen only by you.

Personal tabs can be accessed anytime from any device, even offline.
Learn more »
Give kudos to tab author, rate the tab!
1 2 3 4 5
comments
print report bad tab
guest
You may want to rate the tab now too:
select rating
Wanna post a correction for this tab? Suggest correction