Oops, an error
Loading. Please wait.

Miradas De Amor tab

version 2
version 2

Whole song

  • First tabbed, please check my full cover acoustic,... Show more
28 views 1 this week
no commentswrite comment
1 2 3 4 5
3 more votes to show rating
add to favorites
×
Save as Personal and add changes to this tab that will be seen only by you. Learn more ›
×
You can save this tab as Personal to edit and correct it or add notes. All changes will be seen only by you. Learn more »
launch autoscroll
font size
0
reset
how to read this tab
guitar tuner
edit
Autoscroll
slow
fast
+/-
esc
set tempo
stop
Author
Difficulty
About this tab version
First tabbed, please check my full cover acoustic, and suscribe to my channel if you liked, this tab has been obtained note per note, im pretty sure it dosent have any mistake. Was this info helpful? Yes No
Full Cover : https://youtu.be/rkik4jzFKaI

Por Favor chequen el cover acústico con dos guitarras, me costó muchisimo hacerlo
suscribanse a mi canal o pongan "Edgar Chez" en el buscador, canciones nuevas
antes que nadie y sus tutoriales cada semana!!

e|-------------0--1----1 0h1-|--1--1--3--1--1-----1----------------|-------------|
B|----------3-------3--------|-----------------3----2----2---------|-------------|
G|---0--2/5------------------|-------------------------3---2--3--0-|-3--2--0-----|
D|-3-------------------------|-------------------------------------|----------3--|
A|---------------------------|-------------------------------------|-------------|
E|---------------------------|-------------------------------------|-------------|

e|----------------0---1----1 0h1-|-1--1---------------------------------|
B|------------3---------3--------|-------1-----3-----------1------------|
G|---0--2/5----------------------|----------2-----2--3--3----3--2--0----|
D|-3-----------------------------|------------------------------------3-|
A|-------------------------------|--------------------------------------|
E|-------------------------------|--------------------------------------|

e|--------------------------------------------|----------------------------------------------------------|
B|----------3---1------1----------------------|----------------------------------------------------------|
G|----0--2----------2-----3-------------------|-------------0--2--0----------3/6/10--10/5---5--5--7--5---|
D|--3------------------------3----------------|--2/3--3--3-----------0---2-3-----------------------------|
A|-----------------------------1-1/4--4--3--1-|----------------------------------------------------------|
E|--------------------------------------------|----------------------------------------------------------|

e|-----------------------------------------|-----5-----------|------------------------------|
B|----------3--1-----1---------------------|---6----8--6-6---|------------------------------|
G|-----0--2--------2----3----3/6--6-6-5--3-|---------------7-|------------------------------|
D|--3---------------------3----------------|-----------------|-7--8--8---8--10--8--7--------|
A|-----------------------------------------|-----------------|----------------------10--8---|
E|-----------------------------------------|-----------------|------------------------------|

e|-----------------------------------------------|------------------0----------------------------------------|
B|-----------------------------------------------|---------------3-----3--0--3-----2--2--4--2--1-------------|
G|-----------------------------------------------|-0--0--0--0--4----------------3------------------3--2--0---|
D|---------7--7-8-7--------------------8--7--5-7-|----------------------------------------------------------3|
A|8-10-8-7----------10--8--7--7--0---0-----------|-----------------------------------------------------------|
E|-----------------------------------------------|-----------------------------------------------------------|

e|---------------------0--------1--|---1-------2/5---------------------------|
B|------------------1----3---3-----|------3---------3--2--4-2--1-------------|
G|----0--2-------------------------|---------2-------------------0-----------|
D|--3-------3--2-------------------|--------------------------------2--3-----|
A|---------------------------------|-----------------------------------------|
E|---------------------------------|-----------------------------------------|

e|------------------0--1-------1 0h1-|--1--1--3--1--1-------1----------------|------------------------|
B|--------------3----------3---------|-----------------3------2----2----------------------------------|
G|-----0--2/5------------------------|---------------------------2---2--3--0----3--2--0---------------|
D|---3-------------------------------|---------------------------------------------------3------------|
A|-----------------------------------|----------------------------------------------------------------|
E|-----------------------------------|----------------------------------------------------------------|

e|------------------0---1----1 0h1-|-1--1---------------------------------|
B|--------------3---------3--------|-------1-----3-----------1------------|
G|-----0--2/5----------------------|----------2-----2--3--3----3--2--0----|
D|---3-----------------------------|------------------------------------3-|
A|---------------------------------|--------------------------------------|
E|---------------------------------|--------------------------------------|

e|-------------1--0-------------------------|--------------------0-----------------------------------------|
B|---------2/3------1--3--3--3--3--1--3---1-|-----------------3-----3--0--3-----2--2--4--2--1--------------|
G|-------2----------------------------------|---0--0--0--0--4----------------3------------------3--2--0----|
D|--2h3-------------------------------------|------------------------------------------------------------3-|
A|------------------------------------------|--------------------------------------------------------------|
E|------------------------------------------|--------------------------------------------------------------|

e|------------------0--1-------1 0h1-|---1-------2/5---------------------------|
B|--------------3----------3---------|------3---------3--2--4-2--1-------------|
G|-----0--2/5------------------------|---------2-------------------0-----------|
D|---3-------------------------------|--------------------------------2--3-----|
A|-----------------------------------|-----------------------------------------|
E|-----------------------------------|-----------------------------------------|

e|---1-------2/5-------------------0--1-----|--1---------------1------------------1---5--|
B|------3---------3--2--4-2--1--3-----------|-----2---------2------2-----------1------6--|
G|---------2--------------------------------|--------2---3------------3-----2------------|
D|------------------------------------------|----------------------------3---------------|
A|------------------------------------------|--------------------------------------------|
E|------------------------------------------|--------------------------------------------|



************************************

| h  Hammer-on
| /  Slide up
|    

************************************

            
            
Suggest correction
Creating personal tab
Creating personal tab
You can edit any tab online and save it as your Personal.

You can edit, replace or remove any tab part or add personal notes – all changes will be seen only by you.

Personal tabs can be accessed anytime from any device, even offline.
Learn more »
Give kudos to tab author, rate the tab!
1 2 3 4 5
comments
print report bad tab
guest
You may want to rate the tab now too:
select rating
Wanna post a correction for this tab? Suggest correction