Oops, an error
Loading. Please wait.

Are You With Me Tab

version 2
version 2

Whole song

Interactive

21,745 views 222 this week
no commentswrite comment
1 2 3 4 5
x 18
add to favorites
launch autoscroll
font size
0
reset
how to read this tab
guitar tuner
Autoscroll
slow
fast
+/-
esc
set tempo
stop
Help us to improve Ultimate-Guitar.com Take our survey!
×
Author
e|---------------------------------------------------------------------------|
B|-9---9---9---9---6---6---6---6-------------------8---8---8---8-------------|
G|---------------------------------5---5---5---5-----------------------------|
D|---------------------------------------------------------------------------|
A|---8---8---8---8---4---4---4---4-------------------6---6---6---6-----------|
E|-----------------------------------4---4---4---4---------------------------|

e|---------------------4------------11---------------------------------------|
B|-9-------------6-6-6-----13-13-13-------8-8-8------------------------------|
G|---10----10-10---------6-------------13----------8-------------------------|
D|------10--------------------------------------10---------------------------|
A|---------------------------------------------------------------------------|
E|---------------------------------------------------------------------------|

e|-------------------------8-8-8---------------------------------------------|
B|-------------9-------9-----------9-8-8-8-----------------------------------|
G|-10-10-10-10---6-6-6---6-------8-------------------------------------------|
D|---------------------------------------------------------------------------|
A|---------------------------------------------------------------------------|
E|---------------------------------------------------------------------------|


Chords: Fm Db Ab Eb

I wanna dance by water 'neath the Mexican sky
Drink some Margaritas by a string of blue lights
Listen to the Mariachi play at midnight
Are you with me, are you with me?

Are you with me?

Are you with me?

Drink some Margaritas by a string of blue lights
Listen to the Mariachi play at midnight
Are you with me, are you with me?

I wanna dance by water 'neath the Mexican sky
Drink some Margaritas by a string of blue lights
Listen to the Mariachi play at midnight
Are you with me, are you with me?

Are you with me?

I wanna dance by water 'neath the Mexican sky
Drink some Margaritas by a string of blue lights
Listen to the Mariachi play at midnight
Are you with me, are you with me?

I wanna dance by water 'neath the Mexican sky
Drink some Margaritas by a string of blue lights
Listen to the Mariachi play at midnight
Are you with me, are you with me?

Are you with me?
Suggest correction
comments
print report bad tab
guest
You may want to rate the tab now too:
select rating
Wanna post a correction for this tab? Suggest correction