Oops, an error
Loading. Please wait.
We have Chord Pro version of Are You With Me.
It's the closest thing you can get to the original song and it has interactive parts. Check out the tab »
×

Are You With Me tab

version 3
version 3

Whole song

Interactive

4,461 views 33 this week
no commentswrite comment
1 2 3 4 5
x 4
add to favorites
×
Save as Personal and add changes to this tab that will be seen only by you. Learn more ›
×
You can save this tab as Personal to edit and correct it or add notes. All changes will be seen only by you. Learn more »
launch autoscroll
font size
0
reset
how to read this tab
guitar tuner
edit
Autoscroll
slow
fast
+/-
esc
set tempo
stop
Author
About this tab version
The others lack depth, this fills out the song. Was this info helpful? Yes No
-------------------------------------------------------------------------------
                             Lost Frequencies - Are You With Me
-------------------------------------------------------------------------------
Tabbed by: Adam w
E-mail:

Tuning: Standard


e|---------------------------------------------------------------------------|
B|--9-------9-------9-------9-----------6------6------6------6---------------|
G|-10------10------10------10-----------6------6------6------6---------------|
D|-----10------10------10------10----------6------6------6------6------------|
A|--8-------8-------8-------8-----------4------4------4------4---------------|
E|---------------------------------------------------------------------------|

e|---------------------------------------------------------------------------|
B|-----------------------------------8------8------8------8------------------|
G|--5------5------5------5-----------8------8------8------8----------And-----|
D|--6------6------6------6--------------8------8------8------8------Repeat---|
A|-----6------6------6------6--------6------6------6------6------------------|
E|--4------4------4------4---------------------------------------------------|



Suggest correction
Creating personal tab
Creating personal tab
You can edit any tab online and save it as your Personal.

You can edit, replace or remove any tab part or add personal notes – all changes will be seen only by you.

Personal tabs can be accessed anytime from any device, even offline.
Learn more »
comments
print report bad tab
guest
You may want to rate the tab now too:
select rating
Wanna post a correction for this tab? Suggest correction