Oops, an error
Loading. Please wait.
We have Chord Pro version of Reality.
It's the closest thing you can get to the original song and it has interactive parts. Check out the tab »
×

Reality solo tab

version 1
version 1

Solo

Whole song

Interactive

14,947 views 15 this week
3 commentsread comments
1 2 3 4 5
x 4
add to favorites
×
Save as Personal and add changes to this tab that will be seen only by you. Learn more ›
×
You can save this tab as Personal to edit and correct it or add notes. All changes will be seen only by you. Learn more »
launch autoscroll
font size
0
reset
how to read this tab
guitar tuner
edit
Autoscroll
slow
fast
+/-
esc
set tempo
stop
Author
Lost Frequencies - Reality
Tabbed by: notihs

I did this only in 1 chord, so.. it kinda looks meh, but you can try to move it to another chords aswell. 
I covered the song with this tab, and it worked for me. Tell me what u think. 

Ps: First tab :3

(In multiple chords):
e|--------------------------------------------------------------------------------------------|
B|--------------------------------------------------------------------------------------------|
G|-----------13-------------------------------------------------------------------------------|
D|---14--14-----14--13--13------13----13--14--11--14-13--11--11----11-13-11-9/14--------------|
A|--------------------------14-----14---------------------------12----------------------------|
E|--------------------------------------------------------------------------------------------|

OR (one chord only):
e|--------------------------------------------------------------------------------------------|
B|--------------------------------------------------------------------------------------------|
G|--------------------------------------------------------------------------------------------|
D|---14--14--18-14--13--13--9--13-9-13--14--11--14-13--11--11-7--11-13-11-9/14----------------|
A|--------------------------------------------------------------------------------------------|
E|--------------------------------------------------------------------------------------------|

************************************

| /  Slide up

************************************
Suggest correction
Creating personal tab
Creating personal tab
You can edit any tab online and save it as your Personal.

You can edit, replace or remove any tab part or add personal notes – all changes will be seen only by you.

Personal tabs can be accessed anytime from any device, even offline.
Learn more »
comments
print report bad tab
3 comments total.
0 reply
justas.kalesinskas 27 Aug 22, 2015 09:49 AM

You could do it on few strings, it should be easier to play :/

guest
You may want to rate the tab now too:
select rating
Wanna post a correction for this tab? Suggest correction