Oops, an error
Loading. Please wait.
We have Chord Pro version of Reality.
It's the closest thing you can get to the original song and it has interactive parts. Check out the tab »
×

Reality Live tab

version 1
version 1

Whole song

Interactive

24,208 views 132 this week
4 commentsread comments
1 2 3 4 5
x 4
add to favorites
×
Save as Personal and add changes to this tab that will be seen only by you. Learn more ›
×
You can save this tab as Personal to edit and correct it or add notes. All changes will be seen only by you. Learn more »
launch autoscroll
font size
0
reset
how to read this tab
guitar tuner
edit
Autoscroll
slow
fast
+/-
esc
set tempo
stop
Author
-------------------------------------------------------------------------------
   Reality "live at MNM marathonradio" - Lost Frequencies feat Janieck Devy
                                         (ft. Mikaël Ophoff ft. Emma Lauwers)
-------------------------------------------------------------------------------
Tabbed by: stun64
live version: https://www.youtube.com/watch?v=ZZ7rQS9-hiE
I think it's an accurate tab.
Tuning:EADGBe
About the lyrics: they are maybey wrong, I found multiple versions. So I'm not sure what 
is wright.  THE LYRICS
ARE JUST A GUIDELINE.
Thx to fumpel for reporting.

 guitar 1 : Janieck Devy
    E    G#m  C#m  A
e|-0----4----4----0----|
B|-0----4----5----2----|
G|-1----4----6----2----|
D|-2----6----6----2----|
A|-2----6----4----0----|
E|-0----4--------------|


[Intro]

E G#m C#m A (2x)


[Chorus]

               E                  G#m
Decisions as I go, to anywhere I flow.
               C#m                            A
Sometimes I believe, a time where we should know.
             E                G#m
I can't fly high, I can't go long.
               C#m                         A
Today I got a million, tomorrow, I don't know.
               E                  G#m
Decisions as I go, to anywhere I flow.
               C#m                            A
Sometimes I believe, a time where we should know.
             E                G#m
I can't fly high, I can't go long.
               C#m                         A
Today I got a million, tomorrow, I don't know.


E G#m C#m A (2x)


[Verse]

                         E                        G#m
Stop crying like you're home and think about the show.
                       C#m                         A
We're all playing the same game, I'm laying down along.
                  E                     G#m
We're unknown and wrong, special when I come.
                    C#m                           A
Hate will make you cautious, love will make you glow.
                  E                     G#m
Make me feel the warm, make me feel the cold.
                     C#m                         A
It's written in our story, it's written on the walls.
             E                    G#m
This is our call, we rise and we fall.
                C#m                          A
Dancin' in the moonlight, don't we have it all?


E  G#m  C#m  A  (3x)


[Chorus]

               E                  G#m
Decisions as I go, to anywhere I flow.
               C#m                           A
Sometimes I believe, a time where we should know.
             E                G#m
I can't fly high, I can't go long.
               C#m                         A
Today I got a million, tomorrow, I don't know.
                  E                     G#m
Make me feel the warm, make me feel the cold.
                     C#m                        A
It's written in our story, it's written on the walls.
             E                    G#m
This is our call, we rise and we fall.
                C#m                         A
Dancin' in the moonlight, don't we have it all?


E  G#m  C#m  A

 Guitar 2: Mikaël Ophoff
                                                  |-coulé-|
e|-------7----------------------------------------------------------|
B|--/9-9---9-----4-----4-4-------5---5-4-2-2-----2-4-2-h4-p2--------|
G|--/9-------9---4-4---------4---6---6-6-2-----2--------------4-----|
D|---------------6---6-----6-----6---6-6-2---2----------------------|    2x
A|-----------------------------4---4--------------------------------|
E|-------------4----------------------------------------------------|

e|--------------|
B|--------------|
G|-9--8--6------|
D|----------7---|
A|--------------|
E|--------------|

                                                  |-coulé-|
e|-------7----------------------------------------------------------|
B|--/9-9---9-----4-----4-4-------5---5-4-2-2-----2-4-2-h4-p2--------|
G|--/9-------9---4-4---------4---6---6-6-2-----2--------------4-----|
D|---------------6---6-----6-----6---6-6-2---2----------------------|    2x quiet, 2x loud
A|-----------------------------4---4--------------------------------|
E|-------------4----------------------------------------------------|

e|--------------|
B|--------------|
G|-9--8--6------|
D|----------7---|
A|--------------|
E|--------------|

                                                  |-coulé-|
e|-------7----------------------------------------------------------|
B|--/9-9---9-----4-----4-4-------5---5-4-2-2-----2-4-2-h4-p2--------|
G|--/9-------9---4-4---------4---6---6-6-2-----2--------------4-----|
D|---------------6---6-----6-----6---6-6-2---2----------------------|    2x quiet
A|-----------------------------4---4--------------------------------|
E|-------------4----------------------------------------------------|

 X= palmmuted
   x x x x x x x x x x x x x x x x x x x x x x x x x x x x x x x x
e|-----------------------------------------------------------------|
B|-----------------------------------------------------------------|
G|-----------------------------------------------------------------|
D|-----------------------------------------------------------------|
A|---------------------------------4-4-4-4-4-4-4-4-----------------|
E|-0-0-0-0-0-0-0-0-4-4-4-4-4-4-4-4-----------------5-5-5-5-5-5-5-5-|

   x x x x x x x x x x x x x x x x x x x x x x x x x x x x
e|-----------------------------------------------------------------|
B|-----------------------------------------------------------------|
G|-----------------------------------------------------------------|
D|---------------------------------6-6-6-6-6-6-6-6---------7-7-7-7-|
A|-2-2-2-2-2-2-2-2-6-6-6-6-6-6-6-6-4-4-4-4-4-4-4-4-7-7-7-7-7-7-7-7-|
E|-0-0-0-0-0-0-0-0-4-4-4-4-4-4-4-4-----------------5-5-5-5-5-5-5-5-|


e|-----------------------------------------------------------------|
B|-----------------------------------------------------------------|
G|---------------------------------6-6-6-6-6-6-6-6-----------------|
D|-2-2-2-2-2-2-2-2/6-6-6-6-6-6-6-6-6-6-6-6-6-6-6-6-7-7-7-7-7-7-7-7-|   2x
A|-2-2-2-2-2-2-2-2/6-6-6-6-6-6-6-6-4-4-4-4-4-4-4-4-7-7-7-7-7-7-7-7-|
E|-0-0-0-0-0-0-0-0/4-4-4-4-4-4-4-4-----------------5-5-5-5-5-5-5-5-|

                                                  |-coulé-|
e|-------7----------------------------------------------------------|
B|--/9-9---9-----4-----4-4-------5---5-4-2-2-----2-4-2-h4-p2--------|
G|--/9-------9---4-4---------4---6---6-6-2-----2--------------4-----|
D|---------------6---6-----6-----6---6-6-2---2----------------------|   3x
A|-----------------------------4---4--------------------------------|
E|-------------4----------------------------------------------------|


e|-------7----------------------------------------------------------|
B|--/9-9---9-----4-----4-4-------5---5-4-2-2-----3---------3--------|
G|--/9-------9---4-4---------4---6---6-6-2---2-----2-4-2-4----------|
D|---------------6---6-----6-----6---6-6-2-----2--------------------|
A|-----------------------------4---4--------------------------------|
E|-------------4----------------------------------------------------|

                                                  |-coulé-|
e|-------7----------------------------------------------------------|
B|--/9-9---9-----4-----4-4-------5---5-4-2-2-----2-4-2-h4-p2--------|
G|--/9-------9---4-4---------4---6---6-6-2-----2--------------4-----|
D|---------------6---6-----6-----6---6-6-2---2----------------------|    slow down
A|-----------------------------4---4--------------------------------|
E|-------------4----------------------------------------------------|




************************************

| h  Hammer-on
| p  Pull-off
| /  Slide up

************************************

            
            
Suggest correction
Creating personal tab
Creating personal tab
You can edit any tab online and save it as your Personal.

You can edit, replace or remove any tab part or add personal notes – all changes will be seen only by you.

Personal tabs can be accessed anytime from any device, even offline.
Learn more »
comments
print report bad tab
4 comments total. Showing first comments.
0 reply
fumpel 10 Sep 19, 2015 03:07 PM, edited at 07:09 pm

Awesome!

guest
You may want to rate the tab now too:
select rating
Wanna post a correction for this tab? Suggest correction