Oops, an error
Loading. Please wait.
We have Chord Pro version of Reality.
It's the closest thing you can get to the original song and it has interactive parts. Check out the tab »
×

Reality tab

version 3
version 3

Whole song

Interactive

2,560 views 18 this week
1 commentread comment
1 2 3 4 5
1 last vote to show rating
add to favorites
×
Save as Personal and add changes to this tab that will be seen only by you. Learn more ›
×
You can save this tab as Personal to edit and correct it or add notes. All changes will be seen only by you. Learn more »
launch autoscroll
font size
0
reset
how to read this tab
guitar tuner
edit
Autoscroll
slow
fast
+/-
esc
set tempo
stop
Author
Difficulty
-------------------------------------------------------------------------------
                             REALITY - Lost Frequencies
-------------------------------------------------------------------------------
Tabbed by: Iversen


Tuning:EADGBe



This is the picking pattern that is used through out the song.

Main pattern:

   E         G#m              C#m      A      
e|-----7---------------------------------------------------------------------|
B|---9---9---------------------5----5-4-2-2---2-4-2-0------------------------|
G|-9-------9--8-8---8-8---8----6-6----------2--------------------------------|
D|----------------9-----9----------------------------------------------------|
A|---------------------------------------------------------------------------|
E|---------------------------------------------------------------------------|

This pattern is used every third time.

   E         G#m              C#m       A
e|-----7---------------------------------------------------------------------|
B|---9---9---------------------5----5-4-2-2---2-4-2h4-2p0--------------------|
G|-9-------9--8-8---8-8---8----6-6----------2--------------------------------|
D|----------------9-----9----------------------------------------------------|
A|---------------------------------------------------------------------------|
E|---------------------------------------------------------------------------|


I might have missed parts where there should be more strings played together,
and apologize for that. Hope this still helps a bit.

            
            
Suggest correction
Creating personal tab
Creating personal tab
You can edit any tab online and save it as your Personal.

You can edit, replace or remove any tab part or add personal notes – all changes will be seen only by you.

Personal tabs can be accessed anytime from any device, even offline.
Learn more »
Give kudos to tab author, rate the tab!
1 2 3 4 5
comments
print report bad tab
1 comment total.
0 reply
DarkEddy 10 Nov 12, 2015 05:34 AM

You have to change the e '-----7----' . I doesn't sound right.
I'd change it to -> G-9, B---9, B-----10, not e-----7.

Sounds better.

guest
You may want to rate the tab now too:
select rating
Wanna post a correction for this tab? Suggest correction