Oops, an error
Loading. Please wait.
We have Chord Pro version of Reality.
It's the closest thing you can get to the original song and it has interactive parts. Check out the tab »
×

Reality Acoustic tab

version 4
version 4

Whole song

Interactive

6,265 views 3 this week
no commentswrite comment
1 2 3 4 5
x 5
add to favorites
×
Save as Personal and add changes to this tab that will be seen only by you. Learn more ›
×
You can save this tab as Personal to edit and correct it or add notes. All changes will be seen only by you. Learn more »
launch autoscroll
font size
0
reset
how to read this tab
guitar tuner
edit
Autoscroll
slow
fast
+/-
esc
set tempo
stop
-------------------------------------------------------------------------------
                             REALITY - Lost Frequencies
-------------------------------------------------------------------------------
Tabbed by: Kohlrabiwurst
E-mail: kohlrabiwurst@gmail.com

Tuning: Standard, Capo 4

Hey Guys,
these are the tabs for my accoustic single guitar version of Reality.
You can watch it here: https://www.youtube.com/watch?v=TwLgn3rIwZ8

The w hole song is played with 4 chords: C, Em, Am, F


[Intro/Refrain]

   C                             Em 
     s  s  s  s  s  s  s  e          s  s  s  s  s  s  e
e |--------x-----0-----x-------|--------x-----------x-------|
B |-h1--1--x--1-----1--x--0----|-----0--x--0--0--0--x--0----|
G |--0-----x--0--------x--0----|-----0--x--0--------x-------|
D |--------x-----------x-------|--------x-----------x-------|
A |--3-----x--3--------x-------|--------x-----------x-------|
E |--------x-----------x--0----|-----0--x--0--------x-------|
     h

   Am                            F 
     e     s  s  s  s  s  e          s  s  s  s  s  s  s        
e |--------x-----------x-------|--------x-----------x------|||
B |--1-----x-----1p-0--x-------|--------x--------0--x--0---|||
G |--2-----x--2--------x--2----|-----2--x--2--2-----x-----o|||
D |--------x-----------x--3----|--------x--3--------x-----o|||
A |--0-----x--0--------x-------|--------x-----------x------|||
E |--------x-----------x--1----|--------x-----------x------|||

Song:

[Intro] x2


[Verse]

               C                  Em               
Decisions as I go, to anywhere I flow.
               Am                           F
Sometimes I believe, a time where we should know.
I can't fly high, I can't go long.
Today I got a million, Tomorrow, I don't know.
Decisions as I go, to anywhere I flow.
Sometimes I believe, a time where we should know.
I can't fly high, I can't go long.
Today I got a million, Tomorrow, I don't know.


[Intro] x2


[Verse]

Stop crying like you're home and think about the show.
We're all playing the same game, I'm laying down along.
We're unknown and wrong, special when I come.
Hate will make you cautious, love will make you glow.
Make me feel the warm, make me feel the cold.
It's written in our story, it's written on the walls.
This is our call, we rise and we fall.
Dancin' in the moonlight, don't we have it all?


[Intro] x3


[Verse]

Decisions as I go, to anywhere I flow.
Sometimes I belive, a time where we should know.
I can't fly high, I can't go long.
Today I got a million, Tomorrow, I don't know.
Make me feel the warm, make me feel the cold.
It's written in our story, it's written on the walls.
This is our call, we rise and we fall.
Dancin' in the moonlight, don't we have it all?


[Intro] x3
 

************************************

| h   hammer-on
| p   pull-off
| x   Mute note

************************************ 

            
            
Suggest correction
Creating personal tab
Creating personal tab
You can edit any tab online and save it as your Personal.

You can edit, replace or remove any tab part or add personal notes – all changes will be seen only by you.

Personal tabs can be accessed anytime from any device, even offline.
Learn more »
comments
print report bad tab
guest
You may want to rate the tab now too:
select rating
Wanna post a correction for this tab? Suggest correction