Oops, an error
Loading. Please wait.
We have Chord Pro version of Reality.
It's the closest thing you can get to the original song and it has interactive parts. Check out the tab »
×

Reality tab

version 6
version 6

Whole song

Interactive

280 views 6 this week
no commentswrite comment
1 2 3 4 5
3 more votes to show rating
add to favorites
×
Save as Personal and add changes to this tab that will be seen only by you. Learn more ›
×
You can save this tab as Personal to edit and correct it or add notes. All changes will be seen only by you. Learn more »
launch autoscroll
font size
0
reset
how to read this tab
guitar tuner
edit
Autoscroll
slow
fast
+/-
esc
set tempo
stop
--------------------------------------
         Reality - Radio Edit
          by Lost Frequencies
--------------------------------------

Capo 4th fret

[Intro]
    C                 Em                      Am                 F
e|-------0----0-------------------------------------------------------------------------------------|
B|--1------------1----0----0-------0--0----0--1----------1--0---------------------------------------|
G|----------------------------0--------------------2--2----------2----2-------2--4--2--0------------|
D|-----------------------------------------------------------------------3--------------------------|
A|--3-----------------2-----------------------0------------------3----------------------------------|
E|--------------------------------------------------------------------------------------------------|

    C                 Em                      Am                 F
e|-------0----0-------------------------------------------------------------------------------------|
B|--1------------1----0----0-------0--0----0--1----------1--0---------------------------------------|
G|----------------------------0--------------------2--2----------2----2-------2--4--2h4p0-----------|
D|-----------------------------------------------------------------------3--------------------------|
A|--3-----------------2-----------------------0------------------3----------------------------------|
E|--------------------------------------------------------------------------------------------------|

[Chorus] 
(Play this part softly with chords)

               C                  Em
Decisions as I go, to anywhere I flow.
               Am                             F
Sometimes I believe, at times when I should know.
             C           Em   
I can fly high, i can go low
               Am                        F
Today I got a million, tomorrow I don't know.

               C                               Em
Decisions as I go,    to      anywhere    I   flow.                 Sometimes    I 
e|----------------------0--------0-------------------------------------------------------|
B|-------------1----------------------1--------0--------0------------0----0--------0-----|
G|----------------------------------------------------------0----------------------------|
D|---------------------------------------------------------------------------------------|
A|-------------3-------------------------------2-----------------------------------------|
E|---------------------------------------------------------------------------------------|

      Am                               F
    believe, at times when  I should  know.                  I can fly
e|-------------------------------------------------------------------------------|
B|----1------------------1----0--------------------------------------------------|
G|-------------2----2------------------2--------2-------------2----4----2----0---|
D|---------------------------------------------------3---------------------------|
A|----0--------------------------------3-----------------------------------------|
E|-------------------------------------------------------------------------------|

       C                              Em   
    high,      i      can     go     low.                   Today I got a
e|--------------0--------0-------------------------------------------------------|
B|-----1----------------------1--------0--------0-------------0----0--------0----|
G|---------------------------------------------------0---------------------------|
D|-------------------------------------------------------------------------------|
A|-----3-------------------------------2-----------------------------------------|
E|-------------------------------------------------------------------------------|

      Am                               F
     million,   tomorrow   I   don't  know.
e|-------------------------------------------------------------------------------|
B|----1------------------1----0--------------------------------------------------|
G|-------------2----2------------------2--------2-------------2----4----2----0---|
D|---------------------------------------------------3---------------------------|
A|----0--------------------------------3-----------------------------------------|
E|-------------------------------------------------------------------------------|


[Instrumental]
    C                 Em                      Am                 F
e|-------0----0-------------------------------------------------------------------------------------|
B|--1------------1----0----0-------0--0----0--1----------1--0---------------------------------------|
G|----------------------------0--------------------2--2----------2----2-------2--4--2--0------------|
D|-----------------------------------------------------------------------3--------------------------|
A|--3-----------------2-----------------------0------------------3----------------------------------|
E|--------------------------------------------------------------------------------------------------|


    C                 Em                      Am                 F
e|-------0----0-------------------------------------------------------------------------------------|
B|--1------------1----0----0-------0--0----0--1----------1--0---------------------------------------|
G|----------------------------0--------------------2--2----------2----2-------2--4--2h4p0-----------|
D|-----------------------------------------------------------------------3--------------------------|
A|--3-----------------2-----------------------0------------------3----------------------------------|
E|--------------------------------------------------------------------------------------------------|


[Verse 1]
(For this part I recommend you strum, and hit roughly the strings as show in the tabs)
                         C                              Em
Stop crying like you're home,      and think about the show.           We're all playing the
e|--------------------------------------0-------0----------------------0-------0------------------|
B|--------------------------------------1-------1----------------------0-------0------------------|
G|--------------------------------------0-------0----------------------0-------0------------------|
D|-----------------------2--------------2-------2-------2--------------2-------2------------------|
A|-----------------------3------------------------------2-----------------------------------------|
E|------------------------------------------------------------------------------------------------|

      Am                               F
     same game,      I'm  laying down alone.          We're unknown and
e|-------------------0-------0------------------------1-------1------------------|
B|-------------------1-------1------------------------1-------1------------------|
G|-------------------2-------2------------------------2-------2------------------|
D|----2--------------2-------2---------3--------------3-------3------------------|
A|----0--------------------------------3-----------------------------------------|
E|-------------------------------------------------------------------------------|

      C                              Em   
      known,         special and a  clone.          Hate will make you
e|-------------------0-------0----------------------0-------0------------------|
B|-------------------1-------1----------------------0-------0------------------|
G|-------------------0-------0----------------------0-------0------------------|
D|----2--------------2-------2-------2--------------2-------2------------------|
A|----3------------------------------2-----------------------------------------|
E|-----------------------------------------------------------------------------|

      Am                               F
     cautious,     love will make you glow.           Make me feel the
e|-------------------0-------0------------------------1-------1------------------|
B|-------------------1-------1------------------------1-------1------------------|
G|-------------------2-------2------------------------2-------2------------------|
D|----2--------------2-------2---------3--------------3-------3------------------|
A|----0--------------------------------3-----------------------------------------|
E|-------------------------------------------------------------------------------|

                  C                               Em
                 warmth,  make   me  feel   the  cold.                 It's written in our
e|-------------------------0--------0-------------------------------------------------------|
B|----------------1----------------------1--------0--------0------------0----0--------0-----|
G|-------------------------------------------------------------0----------------------------|
D|------------------------------------------------------------------------------------------|
A|----------------3-------------------------------2-----------------------------------------|
E|------------------------------------------------------------------------------------------|

      Am                               F
     story,   it's  written  on  the  walls.                 This is our
e|-------------------------------------------------------------------------------|
B|----1------------------1----0--------------------------------------------------|
G|-------------2----2------------------2--------2-------------2----4----2----0---|
D|---------------------------------------------------3---------------------------|
A|----0--------------------------------3-----------------------------------------|
E|-------------------------------------------------------------------------------|

       C                              Em   
      call,   we   rise   and   we   fall.                   Dancin' in the
e|--------------0--------0-------------------------------------------------------|
B|-----1----------------------1--------0--------0-------------0----0--------0----|
G|---------------------------------------------------0---------------------------|
D|-------------------------------------------------------------------------------|
A|-----3-------------------------------2-----------------------------------------|
E|-------------------------------------------------------------------------------|

      Am                               F
     moonlight,  don't  we  have  it  all?
e|-------------------------------------------------------------------------------|
B|----1------------------1----0--------------------------------------------------|
G|-------------2----2------------------2--------2-------------2----4----2----0---|
D|---------------------------------------------------3---------------------------|
A|----0--------------------------------3-----------------------------------------|
E|-------------------------------------------------------------------------------|

[Instrumental]
    C                 Em                      Am                 F
e|-------0----0-------------------------------------------------------------------------------------|
B|--1------------1----0----0-------0--0----0--1----------1--0---------------------------------------|
G|----------------------------0--------------------2--2----------2----2-------2--4--2h4p0-----------|
D|-----------------------------------------------------------------------3--------------------------|
A|--3-----------------2-----------------------0------------------3----------------------------------|
E|--------------------------------------------------------------------------------------------------| x3

[Chorus]
              C                               Em
Decisions as I go,    to      anywhere    I   flow.                 Sometimes    I 
e|----------------------0--------0-------------------------------------------------------|
B|-------------1----------------------1--------0--------0------------0----0--------0-----|
G|----------------------------------------------------------0----------------------------|
D|---------------------------------------------------------------------------------------|
A|-------------3-------------------------------2-----------------------------------------|
E|---------------------------------------------------------------------------------------|

      Am                               F
    believe, at times when  I should  know.                  I can fly
e|-------------------------------------------------------------------------------|
B|----1------------------1----0--------------------------------------------------|
G|-------------2----2------------------2--------2-------------2----4----2----0---|
D|---------------------------------------------------3---------------------------|
A|----0--------------------------------3-----------------------------------------|
E|-------------------------------------------------------------------------------|

       C                              Em   
    high,      i      can     go     low.                   Today I got a
e|--------------0--------0-------------------------------------------------------|
B|-----1----------------------1--------0--------0-------------0----0--------0----|
G|---------------------------------------------------0---------------------------|
D|-------------------------------------------------------------------------------|
A|-----3-------------------------------2-----------------------------------------|
E|-------------------------------------------------------------------------------|

      Am                               F
     million,   tomorrow   I   don't  know.
e|-------------------------------------------------------------------------------|
B|----1------------------1----0--------------------------------------------------|
G|-------------2----2------------------2--------2-------------2----4----2----0---|
D|---------------------------------------------------3---------------------------|
A|----0--------------------------------3-----------------------------------------|
E|-------------------------------------------------------------------------------|


[Verse 2]
                  C                               Em
Make me feel the warmth,  make   me   feel  the  cold.                 It's written in our
e|-------------------------0--------0-------------------------------------------------------|
B|----------------1----------------------1--------0--------0------------0----0--------0-----|
G|-------------------------------------------------------------0----------------------------|
D|------------------------------------------------------------------------------------------|
A|----------------3-------------------------------2-----------------------------------------|
E|------------------------------------------------------------------------------------------|

      Am                               F
     story,   it's  written  on  the  walls.                 This is our
e|-------------------------------------------------------------------------------|
B|----1------------------1----0--------------------------------------------------|
G|-------------2----2------------------2--------2-------------2----4----2----0---|
D|---------------------------------------------------3---------------------------|
A|----0--------------------------------3-----------------------------------------|
E|-------------------------------------------------------------------------------|

       C                              Em   
      call,   we   rise   and   we   fall.                   Dancin' in the
e|--------------0--------0-------------------------------------------------------|
B|-----1----------------------1--------0--------0-------------0----0--------0----|
G|---------------------------------------------------0---------------------------|
D|-------------------------------------------------------------------------------|
A|-----3-------------------------------2-----------------------------------------|
E|-------------------------------------------------------------------------------|

      Am                               F
     moonlight,  don't  we  have  it  all?
e|-------------------------------------------------------------------------------|
B|----1------------------1----0--------------------------------------------------|
G|-------------2----2------------------2--------2-------------2----4----2----0---|
D|---------------------------------------------------3---------------------------|
A|----0--------------------------------3-----------------------------------------|
E|-------------------------------------------------------------------------------|

[Outro]
(Here also, I recommend you strum, and hit roughly the strings as show in the tabs)
      C                              Em   
e|-------------------0-------0----------------------0-------0------------------|
B|-------------------1-------1----------------------0-------0------------------|
G|----0--------------0-------0-------0--------------0-------0------------------|
D|----2------------------------------2-----------------------------------------|
A|----3------------------------------2-----------------------------------------|
E|-----------------------------------------------------------------------------|

      Am                               F
e|-------------------0-------0------------------------1-------1-------X--------|
B|-------------------1-------1------------------------1-------1-------X--------|
G|----2--------------2-------2---------2--------------2-------2-------X--------|
D|----2--------------------------------3------------------------------X--------|
A|----0--------------------------------3------------------------------X--------|
E|--------------------------------------------------------------------X--------|

            
            
Suggest correction
Creating personal tab
Creating personal tab
You can edit any tab online and save it as your Personal.

You can edit, replace or remove any tab part or add personal notes – all changes will be seen only by you.

Personal tabs can be accessed anytime from any device, even offline.
Learn more »
Give kudos to tab author, rate the tab!
1 2 3 4 5
comments
print report bad tab
guest
You may want to rate the tab now too:
select rating
Wanna post a correction for this tab? Suggest correction