Oops, an error
Loading. Please wait.

4 Am Forever bass

4,909 views 1 this week
2 commentsread comments
1 2 3 4 5
x 3
add to favorites
×
Save as Personal and add changes to this tab that will be seen only by you. Learn more ›
×
You can save this tab as Personal to edit and correct it or add notes. All changes will be seen only by you. Learn more »
launch autoscroll
font size
0
reset
guitar tuner
edit
Autoscroll
slow
fast
+/-
esc
set tempo
stop
Bass Tab
4:AM Forever
Lostprophets

Tuning: Drop D

KEY
h-hammer on
p-pull off
/-slide to

intro
just guitar

when piano comes in
G:-------------------|
D:-------------------|
A:-------------------|
D:-2-2-2-0-0-0-0h2p0-|
then
G:---------------------------|
D:---------------------------|
A:2--4--6-6/8/6/4----2--4----|
D:-------------------------1-|

verse
G:-------------------------------    ------------------------------|
D:-------------------------------x2  ------------------------------|
A:-6-6-66-66-6-4-4-44-4-4-4h6h4--    -6-6-66-66-6-4-4-44-4-4-8-6-4-|
D:-------------------------------    ------------------------------|

pre-chorus
G:------------------------------|
D:------------------------------|
A:2--4--6-6/8/6/4----2--4-------|
D:-------------------------1111-|

verse
G:--------------------------------   -----------------------------|
D:--------------------------------x2 -----------------------------|
A:-6-6-66-66-6-4-4-44-4-4-4h6h4---   6-6-66-66-6-4-4-44-4-4-8-6-4-|
D:--------------------------------   -----------------------------|

pre-chorus
G:---------------------------|
D:---------------------------|
A:2--4--6-6/8/6/4----2--4----|
D:-------------------------1-|

chorus
G:----------------------------------|
D:----------------------------------|  x2
A:--------2-2-222---------4-4-444---|
D:1-1-111---------4-4-444-----------|

G:--------------------------------------|
D:--------------------------------------|
A:--------2-2-222---------4-4-444-4h6h4-|
D:1-1-111---------4-4-444---------------|

pre verse
G:---------------------------|
D:---------------------------|
A:2--4--6--8---2--4----------|
D:-------------------1-11111-|

verse

pre-chorus

bridge
G:----------------------------------------------------------------|
D:----------------------------43----------------------------------|
A:2-2-2222-22-2222-44-4444-444--4-66-6666-66-6666-88-8888-88-8888-|
D:----------------------------------------------------------------|

G:-----------------------------------------------------------------------|
D:----------------------------43-----------------------------------88888-|
A:2-2-2222-22-2222-44-4444-444--4-66-6666-66-6666-88-8888-88-8888--------|
D:-----------------------------------------------------------------------|


solo
G:---------------------------------------------------------------------|
D:---------------------------------------------------------------------|  x2
A:2-2-2222-22-2222-44-4444-444--4444-66-6666-66-6666-88-8888-88-8888---|
D:---------------------------------------------------------------------|

chorus
G:---------------------------------------|
D:---------------------------------------| x3
A:--------2-2-222---------4-4-444-4h6h4--|
D:1-1-111---------4-4-444----------------|

G:----------|
D:----------|
A:2--4--6---|
D:----------|

G:---------------------------------------|
D:---------------------------------------| x2
A:--------2-2-222---------4-4-444-4h6h4--|
D:1-1-111---------4-4-444----------------|

G:---------------------|
D:---------------------|
A:2--4--6--8---2--4----|
D:-------------------1-|


if any thing is wrong with the tab plz comment.
tabbed by jake murray

            
            
Suggest correction
Creating personal tab
Creating personal tab
You can edit any tab online and save it as your Personal.

You can edit, replace or remove any tab part or add personal notes – all changes will be seen only by you.

Personal tabs can be accessed anytime from any device, even offline.
Learn more »
Give kudos to tab author, rate the tab!
1 2 3 4 5
comments
print report bad tab
2 comments total.
0 reply
musea7x 30 May 03, 2009 04:34 PM

you're missing a ton of fills and some other stuff is wrong

0 reply
sum41rules 10 Feb 25, 2010 11:05 AM

Yep missing lots of "bits in the middle"...bass isn't that boring :)

guest
You may want to rate the tab now too:
select rating
Wanna post a correction for this tab? Suggest correction