Oops, an error
Loading. Please wait.

4Am Forever solo tab

version 1
version 1

Solo

Whole song

Interactive

3,455 views 1 this week
6 commentsread comments
1 2 3 4 5
x 11
add to favorites
×
Save as Personal and add changes to this tab that will be seen only by you. Learn more ›
×
You can save this tab as Personal to edit and correct it or add notes. All changes will be seen only by you. Learn more »
launch autoscroll
font size
0
reset
how to read this tab
guitar tuner
edit
Autoscroll
slow
fast
+/-
esc
set tempo
stop
Author
Difficulty
-------------------------------------------------------------------------------
                             4am Forever - Lostprophets
-------------------------------------------------------------------------------
Tabbed by:Elite Tabber

Email:nissan_gtr_vpsec@hotmail.com

Tuning:Drop D

e|---------------------------------------------------9-11-11-9--11-11--9-----|
B|--11-11-11p9--9-h11p---9---8-11-8---8------------11---------11-----11-11---|
G|------------11-------11-11--------11-11-8-11-8-----------------------------|
D|-----------------------------------------------11--------------------------|
A|---------------------------------------------------------------------------|
E|---------------------------------------------------------------------------|

e|-14/16 16-14--18-16-14-16-14-----18-h14-16-h14------18-h14-16-h14----------|
B|------------16--------------16-14--------------16-h14-------------16-h14---|
G|---------------------------------------------------------------------------|
D|---------------------------------------------------------------------------|
A|---------------------------------------------------------------------------|
E|---------------------------------------------------------------------------|

e|-18-h14-16-h14-19-h14-16-h14-------19-h14-16-h14-16-h14-------------------|
B|----------------------------16-h14----------------------16-h14------------|
G|--------------------------------------------------------------------------|
D|--------------------------------------------------------------------------|
A|--------------------------------------------------------------------------|
E|--------------------------------------------------------------------------|

e|----------------------------------18--------------------------------------|
B|-16-14--------------------------------------------------------------------|
G|------15---------------13-------------------------------------------------|
D|--------16-15--------16--15-16--13----------------------------------------|
A|-------------16-16-13---------16------------------------------------------|
E|--------------------------------------------------------------------------|

These tabs are absolutely perfect, u have to get the right timing tho so listen to the
have these tabs handy an u will get it. some of the parts are fast and tricky but aslong
u practice these tabs won't let u down.If u want the last little solo bit aswell u'll 
to wait for me to perfect it for u guys, dnt use tabs by anyone else their useless. thx
rate me too

| /  slide up
| \  slide down
| h  hammer-on
| p  pull-off
| ~  vibrato
| +  harmonic
| x  Mute note
===============================================================================

            
            
Suggest correction
Creating personal tab
Creating personal tab
You can edit any tab online and save it as your Personal.

You can edit, replace or remove any tab part or add personal notes – all changes will be seen only by you.

Personal tabs can be accessed anytime from any device, even offline.
Learn more »
comments
print report bad tab
6 comments total. Showing first comments.
-1 reply
Scratchsniff 375 Oct 30, 2006 01:57 AM

This is crap, you have most notes kinda right but the complete wrong positioning, the beginning notes are bends of teh 9th fret on B - thats so obvious to hear, an after the high pitched notes (16th fret on E) the figering doesnt stay round there.

Stop listening to emo an try playing the van halen "right now" solo.

Wanna carry on this slagging match?

+2 reply
Dracharon 10 Dec 11, 2006 03:20 PM

erm.. wtf?! hu started a slaggon match?! leave him alone, he gt a tab wrong, oh no! has ur life ended? if ur reading this then i guess not. so just piss of. nd lostprophets arent emo u dick.

0 reply
Vortex_uk 173 Dec 19, 2006 09:01 AM

LP USE DROP C!!!

guest
You may want to rate the tab now too:
select rating
Wanna post a correction for this tab? Suggest correction