Oops, an error
Loading. Please wait.

4Am Forever solo tab

version 2
version 2

Solo

Whole song

Interactive

11,508 views 9 this week
7 commentsread comments
1 2 3 4 5
x 7
add to favorites
×
Save as Personal and add changes to this tab that will be seen only by you. Learn more ›
×
You can save this tab as Personal to edit and correct it or add notes. All changes will be seen only by you. Learn more »
launch autoscroll
font size
0
reset
how to read this tab
guitar tuner
edit
Autoscroll
slow
fast
+/-
esc
set tempo
stop
                     4:AM Forever - Lostprophets
-------------------------------------------------------------------------------
Tabbed by: Joe
Email: Mad.fer.it@hotmail.co.uk

Tuning: Drop D  DADGBE



h - hammer
b - bend
r - release
p - pull off


Credit here to Rags, was his tab and i just edited it so theres less finger movement all over the fretboard

Not sure about the second half of the tab, im open to suggestions here lol

Rate it if you like it, and this IS actually my first tab but be brutal anyway lol

Solo:
|---------------------------------------------------------------------11--|
|---9b11-9b11-11r9----7-9-9b11r9-7---7----------------------------9h11----|
|----------------------------------8---8------6-8-6----6------------------|
|----------------------------------------------------8---8-8-6------------|
|-------------------------------------------------------------------------|
|-------------------------------------------------------------------------|

|--11-----11---11-11--------16-16------------18-16-14-16-14-------------------|
|----14p11----------11-14-11-------14-16-14-----------------16-14-------------|
|-----------------------------------------------------------------------------|
|-----------------------------------------------------------------------------|
|-----------------------------------------------------------------------------|
|-----------------------------------------------------------------------------|

(Fast bit)
|--18p14-16p14-------18p14-16p14------18p14-16p14-20p14-16p14------20p14-16p14-----18p14--|
|--------------16p14-------------16p14------------------------16p14------------16p14------|
|-----------------------------------------------------------------------------------------|
|-----------------------------------------------------------------------------------------|
|-----------------------------------------------------------------------------------------|
|-----------------------------------------------------------------------------------------|

|---------------------------------------------------------------|
|------------------------------------------7--9--6--7-----------|
|----------8---6---3-----------------------x--x--x--x--6--8-----|
|----------------1---1-4--1-3-1------------4--6--3--4--x--x-----|
|--------6---6------------------4-6-4------------------4--6-----|
|------------------------------------8--------------------------|
PM . . .
 

^ Thanks to Richardsmith199 for that bit =)

(Another fast bit)
|--14--------------------------------------------------------------------|
|-----16-14-11-14-11-14-11-9-7-9-7-9-7-----------------------------------|
|--------------------------------------8-6-8-6-8-6-----------------------|
|--------------------------------------------------8-6-8-6-8-14/16-16-16-|
|------------------------------------------------------------------------|
|------------------------------------------------------------------------|

End on

|--------
|-16-----
|-18brb--
|--------
|--------
|--------

^ Thanks again Richardsmith199 lol

Suggest correction
Creating personal tab
Creating personal tab
You can edit any tab online and save it as your Personal.

You can edit, replace or remove any tab part or add personal notes – all changes will be seen only by you.

Personal tabs can be accessed anytime from any device, even offline.
Learn more »
comments
print report bad tab
7 comments total. Showing first comments.
0 reply
richardsmith199 20 Jul 03, 2007 01:04 AM

|---------------------------------------------------------------|
|------------------------------------------7--9--6--7-----------|
|----------8---6---3-----------------------x--x--x--x--6--8-----|
|----------------1---1-4--1-3-1------------4--6--3--4--x--x-----|
|--------6---6------------------4-6-4------------------4--6-----|
|------------------------------------8--------------------------|
PM . . .


i dunno if u'll aggree but i hear them octaves in that part of the solo not just the normal notes but other then that its pretty gd 4stars

0 reply
richardsmith199 20 Jul 03, 2007 01:08 AM

argh the palm mutin fecked up erm its the first 3 D# (6th fret on a string and 1st on the d string)

0 reply
richardsmith199 20 Jul 03, 2007 01:15 AM

o an i think it ends on


|--------
|-16-----
|-18brb--
|--------
|--------
|--------

guest
You may want to rate the tab now too:
select rating
Wanna post a correction for this tab? Suggest correction