Oops, an error
Loading. Please wait.

4Am Forever tab

version 1
version 1

Whole song

Interactive

20,760 views 6 this week
14 commentsread comments
1 2 3 4 5
x 20
add to favorites
×
Save as Personal and add changes to this tab that will be seen only by you. Learn more ›
×
You can save this tab as Personal to edit and correct it or add notes. All changes will be seen only by you. Learn more »
launch autoscroll
font size
0
reset
how to read this tab
guitar tuner
edit
Autoscroll
slow
fast
+/-
esc
set tempo
stop
                     4:AM Forever - Lostprophets
-------------------------------------------------------------------------------
Tabbed by: Rags
Email: h.ragnauth@ukonline.co.uk

Tuning: Drop D  DADGBE

This song is made easier with two guitars.
Listen to the song to get timings for guitar 2
FOLLOW EXACTLY
PLEASE RATE
p.m - palm mute
p - pull off


Verse: Guitar 1
E|--------------6-6-6-----------------|
B|--7--7--7--7---------6--6--6--6--6--| x3
G|------------------------------------|
D|------------------------------------|
A|------------------------------------|
D|------------------------------------|
p.m

Verse: Guitar 2 (playing 2 notes for every 1 note in guitar 1)
E|----------------------------------------------------------------------|
B|----------------------------------------------------------------------|
G|-------------------------------3-3-3----------------------------------| x3
D|-4-4-4-4-4-4-4-4-4-4-4-4-4-4-4-------3-3-3-3-3-3-3-3-3-3-3-3-3-3-3-3--|
A|----------------------------------------------------------------------|
D|----------------------------------------------------------------------|
p.m




Prechorus: Guitar 1
|----------------------------------|
|----------------------------------|
|--4--------------4---6------------|
|--4---6---4------4---6---1--------|
|--2---6---4------2---4---1--------|
|------6---4--------------1--------|

Guitar 2 (second time instead of playing 9---11---6 play what’s in brackets)
|-------------------------------------------------|
|-------------------------------------------------|
|--------8---------------8---------(11---13---8)--| x2
|--6-8-6---6-8-6---6-8-6---6-8-6------------------|
|-----------------------------------9---11---6----|
|-------------------------------------------------|






Verse: Guitar 1
E|--------------6-6-6-----------------|
B|--7--7--7--7---------6--6--6--6--6--| x3
G|------------------------------------|
D|------------------------------------|
A|------------------------------------|
D|------------------------------------|
p.m

Verse: Guitar 2 (playing 2 notes for every 1 note in guitar 1)
E|----------------------------------------------------------------------|
B|----------------------------------------------------------------------|
G|-------------------------------3-3-3----------------------------------| x3
D|-4-4-4-4-4-4-4-4-4-4-4-4-4-4-4-------3-3-3-3-3-3-3-3-3-3-3-3-3-3-3-3--|
A|----------------------------------------------------------------------|
D|----------------------------------------------------------------------|
p.m




Prechorus: Guitar 1
|----------------------------------|
|----------------------------------|
|--4--------------4---6------------|
|--4---6---4------4---6---1--------|
|--2---6---4------2---4---1--------|
|------6---4--------------1--------|

Guitar 2 (second time instead of playing 9---11---6 play what’s in brackets)
|-------------------------------------------------|
|-------------------------------------------------|
|--------8---------------8---------(11---13---8)--| x2
|--6-8-6---6-8-6---6-8-6---6-8-6------------------|
|-----------------------------------9---11---6----|
|-------------------------------------------------|


Verse: Guitar 1
E|--------------6-6-6-----------------|
B|--7--7--7--7---------6--6--6--6--6--| x3
G|------------------------------------|
D|------------------------------------|
A|------------------------------------|
D|------------------------------------|
p.m

Verse: Guitar 2 (playing 2 notes for every 1 note in guitar 1)
E|----------------------------------------------------------------------|
B|----------------------------------------------------------------------|
G|-------------------------------3-3-3----------------------------------| x3
D|-4-4-4-4-4-4-4-4-4-4-4-4-4-4-4-------3-3-3-3-3-3-3-3-3-3-3-3-3-3-3-3--|
A|----------------------------------------------------------------------|
D|----------------------------------------------------------------------|
p.m

Prechorus: Guitar 1
|----------------------------------|
|----------------------------------|
|--4--------------4---6------------|
|--4---6---4------4---6---1--------|
|--2---6---4------2---4---1--------|
|------6---4--------------1--------|

Guitar 2 (second time instead of playing 9---11---6 play what’s in brackets)
|-------------------------------------------------|
|-------------------------------------------------|
|--------8---------------8---------(11---13---8)--| x2
|--6-8-6---6-8-6---6-8-6---6-8-6------------------|
|-----------------------------------9---11---6----|
|-------------------------------------------------|


Chorus: Both Guitars
|--------------------------------------------------------------|
|--------------------------------------------------------------|
|----------------4-4-4-4-4---------------------6-6-6-6-6-------|
|-1-1-1-1-1--1---4-4-4-4-4---4--4-4-4-4-4--4---6-6-6-6-6-------| x3
|-1-1-1-1-1--1---2-2-2-2-2---4--4-4-4-4-4--4---4-4-4-4-4-------|
|-1-1-1-1-1--1---------------4--4-4-4-4-4--4-------------------|




Both Guitars
|---------------------------------------------------------------------|
|---------------------------------------------------------------------|
|--4-4-4-4-4-4-4-4--6-6-6-6-6-6-6-6-----------------------------------|
|--4-4-4-4-4-4-4-4--6-6-6-6-6-6-6-6--1-1-1-1-1-1-1-1--3-3-3-3-3-3-3-3-|
|--2-2-2-2-2-2-2-2--4-4-4-4-4-4-4-4--1-1-1-1-1-1-1-1--3-3-3-3-3-3-3-3-|
|------------------------------------1-1-1-1-1-1-1-1--3-3-3-3-3-3-3-3-|

|-------------------------------------------------------|
|-------------------------------------------------------|
|--4-4-4-4-4-4-4-4--6-6-6-6-6-6-6-6--8------------------|
|--4-4-4-4-4-4-4-4--6-6-6-6-6-6-6-6--8---1-1-1-1-1-1-1--|
|--2-2-2-2-2-2-2-2--4-4-4-4-4-4-4-4--6---1-1-1-1-1-1-1--|
|----------------------------------------1-1-1-1-1-1-1--|




Verse: Guitar 1
E|--------------6-6-6-----------------|
B|--7--7--7--7---------6--6--6--6--6--| x2
G|------------------------------------|
D|------------------------------------|
A|------------------------------------|
D|------------------------------------|
p.m

Verse: Guitar 2 (playing 2 notes for every 1 note in guitar 1)
E|----------------------------------------------------------------------|
B|----------------------------------------------------------------------|
G|-------------------------------3-3-3----------------------------------| x2
D|-4-4-4-4-4-4-4-4-4-4-4-4-4-4-4-------3-3-3-3-3-3-3-3-3-3-3-3-3-3-3-3--|
A|----------------------------------------------------------------------|
D|----------------------------------------------------------------------|
p.m




Prechorus: Guitar 1
|----------------------------------|
|----------------------------------|
|--4--------------4---6------------|
|--4---6---4------4---6---1--------|
|--2---6---4------2---4---1--------|
|------6---4--------------1--------|

Guitar 2 (second time instead of playing 9---11---6 play what’s in brackets)
|-------------------------------------------------|
|-------------------------------------------------|
|--------8---------------8---------(11---13---8)--| x2
|--6-8-6---6-8-6---6-8-6---6-8-6------------------|
|-----------------------------------9---11---6----|
|-------------------------------------------------|



Bridge: Guitar 1 (Second time through, don’t play the last chord)
|------------------------------------------------|
|------------------------------------------------|
|------------------------8----------10-----------| X2
|-9----------11----------8----------10-----------|
|-9----------11----------6-----------8-----------|
|-9----------11----------------------------------|

Guitar 2
|-------------------------------------------------|
|-------------------------------------------------|
|---7---------------------------7-----------------| x2
|------7---------------------------7--------------|
|---------5---------------------------5-----------|
|-------------------------------------------------|








Solo:
|-------------------------------------------------------------------4-6-11--|
|---11-11-11/9----7-9-11-9-7-9-7------------7---------------2---------------|
|-----------------------------------------8---8---6-8-6---3---3---1---------|
|---------------------------------------------------------------------------|
|---------------------------------------------------------------------------|
|---------------------------------------------------------------------------|

|--11-9p6--11---11-11-6-9--6-16-16---------18-16-14-16-14-------------------|
|------------------------------------16-14----------------16-14-------------|
|---------------------------------------------------------------------------|
|---------------------------------------------------------------------------|
|---------------------------------------------------------------------------|
|---------------------------------------------------------------------------|

(This bit is extremely fast)
|--18----16----14----18----16----14----18----16----20----16----14----20----16----14-----|
|-----16----16----14----16----16----14----16----16----16----16----16----16----16----14--|
|---------------------------------------------------------------------------------------|
|---------------------------------------------------------------------------------------|
|---------------------------------------------------------------------------------------|
|---------------------------------------------------------------------------------------|

|--18-------------------------------------------------------------|
|-----16----------------------------------------------------------|
|------------8---6---3--------------------------------------------|
|------------------1---1-4--1-3-1------------4--6--3--4-----------|
|----------6---6------------------4-6-4------------------4--6-----|
|--------------------------------------8--------------------------|

(Another very fast bit)
|--14--------------------------------------------------------------------|
|-----16-14-11-14-11-14-11-9-7-9-7-9-7-----------------------------------|
|--------------------------------------8-6-8-6-8-6-----------------------|
|--------------------------------------------------8-6-8-6-8-14/16-16-16-|
|------------------------------------------------------------------------|
|------------------------------------------------------------------------|




Chorus: Both Guitars
|--------------------------------------------------------------|
|--------------------------------------------------------------|
|----------------4-4-4-4-4---------------------6-6-6-6-6-------|
|-1-1-1-1-1--1---4-4-4-4-4---4--4-4-4-4-4--4---6-6-6-6-6-------| x3
|-1-1-1-1-1--1---2-2-2-2-2---4--4-4-4-4-4--4---4-4-4-4-4-------|
|-1-1-1-1-1--1---------------4--4-4-4-4-4--4-------------------|









Bridge: 
|------------------------------------------------|
|------------------------------------------------|
|------------------------8----------10-----------| 
|-9----------11----------8----------10-----------|
|-9----------11----------6-----------8-----------|
|-9----------11----------------------------------|



Chorus: Both Guitars
|--------------------------------------------------------------|
|--------------------------------------------------------------|
|----------------4-4-4-4-4---------------------6-6-6-6-6-------|
|-1-1-1-1-1--1---4-4-4-4-4---4--4-4-4-4-4--4---6-6-6-6-6-------| x3
|-1-1-1-1-1--1---2-2-2-2-2---4--4-4-4-4-4--4---4-4-4-4-4-------|
|-1-1-1-1-1--1---------------4--4-4-4-4-4--4-------------------|


Both Guitars
|---------------------------------------------------------------------|
|---------------------------------------------------------------------|
|--4-4-4-4-4-4-4-4--6-6-6-6-6-6-6-6-----------------------------------|
|--4-4-4-4-4-4-4-4--6-6-6-6-6-6-6-6--1-1-1-1-1-1-1-1--3-3-3-3-3-3-3-3-|
|--2-2-2-2-2-2-2-2--4-4-4-4-4-4-4-4--1-1-1-1-1-1-1-1--3-3-3-3-3-3-3-3-|
|------------------------------------1-1-1-1-1-1-1-1--3-3-3-3-3-3-3-3-|


|--------------------------------------------|
|--------------------------------------------|
|--------------------------------------------| 
|-9----------11-------1---------------------|
|-9----------11-------1---------------------|
|-9----------11-------1---------------------|

Suggest correction
Creating personal tab
Creating personal tab
You can edit any tab online and save it as your Personal.

You can edit, replace or remove any tab part or add personal notes – all changes will be seen only by you.

Personal tabs can be accessed anytime from any device, even offline.
Learn more »
comments
print report bad tab
14 comments total. Showing first comments.
+2 reply
z3r0element07 602 Jul 17, 2006 04:05 PM

This is almost perfect, everything is a half-step off so it should be Drop Db.

0 reply
strat_strummer 168 Jul 28, 2006 02:07 AM

really good but in an interview LP said that their guitars tuning was dafcgc.

0 reply
djdom89 10 Aug 12, 2006 08:43 AM

good tab but does anyone know of a way to do this really well acoustically? cheers

guest
You may want to rate the tab now too:
select rating
Wanna post a correction for this tab? Suggest correction