Oops, an error
Loading. Please wait.

4Am Forever tab

version 3
version 3

Whole song

Interactive

3,471 views 1 this week
1 commentread comment
1 2 3 4 5
1 last vote to show rating
add to favorites
×
Save as Personal and add changes to this tab that will be seen only by you. Learn more ›
×
You can save this tab as Personal to edit and correct it or add notes. All changes will be seen only by you. Learn more »
launch autoscroll
font size
0
reset
how to read this tab
guitar tuner
edit
Autoscroll
slow
fast
+/-
esc
set tempo
stop
DADGBE

Intro Guitar 1(fingerpick):
e|----------------------------------------|
B|----------------------------------------|
G|-1111111111111111/151515\10101010101010-|
D|----------------------------------------|
A|-9-9-9-9-9-9-9-9-/131313\8-8-8-8-8-8-8--|
D|----------------------------------------|

Intro Guitar 2:
e|-------11------------------------------|
B|-11------------------------------------|
G|----11------13-------------------------|
D|----------------15-------13--15--------|
A|--------------------16-----------16----|
D|---------------------------------------|

Lick Guitar 1:
e|----------------------------------------|
B|----------------------------------------|
G|----------------------------------------|
D|-9~~------11~~--------1~~---------------|
A|-9~~------11~~--------1~~---------------|
D|-9~~------11~~--------1~~---------------|

Lick Guitar 2:
e|--------------------------------------------------------|
B|--------------------------------------------------------|
G|--------8--------8-----------------8--------8---10------|
D|-----8-----8--8---8--8-6--------8-----8--8---8----11----|
A|-9-11-11-11-11-11--11----6--9-11-11-11-11-11--11----13--|
D|--------------------------------------------------------|

Verse Guitar 1 (fingerpick):
e|----------------------------------------|
B|----------------------------------------|
G|-1111111111111111/151515\10101010101010-|
D|----------------------------------------|
A|-9-9-9-9-9-9-9-9-/131313\8-8-8-8-8-8-8--|
D|----------------------------------------|

Verse Guitar 2 silent

Lick Guitar 1:
e|----------------------------------------|
B|----------------------------------------|
G|----------------------------------------|
D|-9~~------11~~--------1~~---------------|
A|-9~~------11~~--------1~~---------------|
D|-9~~------11~~--------1~~---------------|

Lick Guitar 2:
e|--------------------------------------------------------|
B|--------------------------------------------------------|
G|--------8--------8-----------------8--------8---10------|
D|-----8-----8--8---8--8-6--------8-----8--8---8----11----|
A|-9-11-11-11-11-11--11----6--9-11-11-11-11-11--11----13--|
D|--------------------------------------------------------|

Verse Guitar 1 (fingerpick):
e|----------------------------------------|
B|----------------------------------------|
G|-1111111111111111/151515\10101010101010-|
D|----------------------------------------|
A|-9-9-9-9-9-9-9-9-/131313\8-8-8-8-8-8-8--|
D|----------------------------------------|

Verse Guitar 2 silent

Lick Guitar 1:
e|----------------------------------------|
B|----------------------------------------|
G|----------------------------------------|
D|-9~~------11~~--------1~~---------------|
A|-9~~------11~~--------1~~---------------|
D|-9~~------11~~--------1~~---------------|

Lick Guitar 2:
e|--------------------------------------------------------|
B|--------------------------------------------------------|
G|--------8--------8-----------------8--------8---10------|
D|-----8-----8--8---8--8-6--------8-----8--8---8----11----|
A|-9-11-11-11-11-11--11----6--9-11-11-11-11-11--11----13--|
D|--------------------------------------------------------|

Chorus both guitars(not exact amount):

e|--------------------------------------------------|
B|--------------------------------------------------|
G|--------------------------------------------------|x3
D|-1-1-1-1-1--9-9-9-9-9--4-4-4-4-4--11-11-11-11-11--|
A|-1-1-1-1-1--9-9-9-9-9--4-4-4-4-4--11-11-11-11-11--|
D|-1-1-1-1-1--9-9-9-9-9--4-4-4-4-4--11-11-11-11-11--|

Then...
e|---------------------------------------------------------------------|
B|---------------------------------------------------------------------|
G|---------------------------------------------------------------------|
D|-9-9-9-9-9-9-9-9--11-11-11-11-11-11-11-11--13-13-13-13-13-13-13-13---|
A|-9-9-9-9-9-9-9-9--11-11-11-11-11-11-11-11--13-13-13-13-13-13-13-13---|
D|-9-9-9-9-9-9-9-9--11-11-11-11-11-11-11-11--13-13-13-13-13-13-13-13---|

e|-------------------------|
B|-------------------------|
G|-------------------------|
D|-15-15-15-15-15-15-15-15-|
A|-15-15-15-15-15-15-15-15-|
D|-15-15-15-15-15-15-15-15-|

e|--------------------------------------------------------------------------|
B|--------------------------------------------------------------------------|
G|--------------------------------------------------------------------------|
D|-9-9-9-9-9-9-9-9--11-11-11-11-11-11-11-11--1-1-1-1-1-1-1-1-1-1-1-1-1-1-1-1|
A|-9-9-9-9-9-9-9-9--11-11-11-11-11-11-11-11--1-1-1-1-1-1-1-1-1-1-1-1-1-1-1-1|
D|-9-9-9-9-9-9-9-9--11-11-11-11-11-11-11-11--1-1-1-1-1-1-1-1-1-1-1-1-1-1-1-1|

Verse Guitar 1(fingerpick):
e|----------------------------------------|
B|----------------------------------------|
G|-1111111111111111/151515\10101010101010-|
D|----------------------------------------|
A|-9-9-9-9-9-9-9-9-/131313\8-8-8-8-8-8-8--|
D|----------------------------------------|

Verse Guitar 2:
e|-------11------------------------------|
B|-11------------------------------------|
G|----11------13-------------------------|
D|----------------15-------13--15--------|
A|--------------------16-----------16----|
D|---------------------------------------|

Lick Guitar 1:
e|----------------------------------------|
B|----------------------------------------|
G|----------------------------------------|
D|-9~~------11~~--------1~~---------------|
A|-9~~------11~~--------1~~---------------|
D|-9~~------11~~--------1~~---------------|

Lick Guitar 2:
e|--------------------------------------------------------|
B|--------------------------------------------------------|
G|--------8--------8-----------------8--------8---10------|
D|-----8-----8--8---8--8-6--------8-----8--8---8----11----|
A|-9-11-11-11-11-11--11----6--9-11-11-11-11-11--11----13--|
D|--------------------------------------------------------|

Bridge Guitar 1:
e|---------------------------------------------------------------------|
B|---------------------------------------------------------------------|
G|---------------------------------------------------------------------|
D|-9-9-9-9-9-9-9-9--11-11-11-11-11-11-11-11--13-13-13-13-13-13-13-13---|
A|-9-9-9-9-9-9-9-9--11-11-11-11-11-11-11-11--13-13-13-13-13-13-13-13---|
D|-9-9-9-9-9-9-9-9--11-11-11-11-11-11-11-11--13-13-13-13-13-13-13-13---|

e|-------------------------|
B|-------------------------|
G|-------------------------|
D|-13-13-13-13-13-13-13-13-|
A|-13-13-13-13-13-13-13-13-|
D|-13-13-13-13-13-13-13-13-|

Bridge Guitar 2: not tabbed any suggestions??

Solo to come


Chorus both guitars(not exact amount):

e|--------------------------------------------------|
B|--------------------------------------------------|
G|--------------------------------------------------|
D|-1-1-1-1-1--9-9-9-9-9--4-4-4-4-4--11-11-11-11-11--|
A|-1-1-1-1-1--9-9-9-9-9--4-4-4-4-4--11-11-11-11-11--|
D|-1-1-1-1-1--9-9-9-9-9--4-4-4-4-4--11-11-11-11-11--|

Mini solo:
e|------------------------------------------------------------------|
B|----------------------------11--11-14-10bh13-10bh13-10b13----15b--|
G|-------------------11--11-13--13-------------------------13-------|
D|------11--11--11-13--13------------------------------------16-----|
A|-11-13--13--13----------------------------------------------------|
D|------------------------------------------------------------------|

Then...
e|-------------------|----------------|----11--11-14-11-9-11-18b-18-18-14-|
B|-16-14--14---------|----------------|-/11--11---------------------------|
G|------15--15-13-15-|-15-13--13------|-----------------------------------|
D|-------------------|------16--16-13-|-----------------------------------|
A|-------------------|----------------|-----------------------------------|
D|-------------------|----------------|-----------------------------------|

e|-18------|------------------------|
B|---19-16-|------------------------|
G|---------|-13---------------------|
D|---------|---11-13------11-13~~---|
A|---------|--------11-13-----------|
D|---------|------------------------|

You can take it from there enjoy!!

            
            
Suggest correction
Creating personal tab
Creating personal tab
You can edit any tab online and save it as your Personal.

You can edit, replace or remove any tab part or add personal notes – all changes will be seen only by you.

Personal tabs can be accessed anytime from any device, even offline.
Learn more »
Give kudos to tab author, rate the tab!
1 2 3 4 5
comments
print report bad tab
1 comment total.
0 reply
crazyjoeinit 31 Oct 17, 2006 09:07 AM

Soz guys messed up lil bit of mini solo this is how it shud go!
|----11--11-14-11-9-11-18-18-18-16--16------|
|-/11--11-------------------------19--19-16-|
|-------------------------------------------|
|-------------------------------------------|
|-------------------------------------------|
|-------------------------------------------|
continue on as tabbed before....enjoy!

guest
You may want to rate the tab now too:
select rating
Wanna post a correction for this tab? Suggest correction