Oops, an error
Loading. Please wait.

4Am Forever tab

version 4
version 4

Whole song

Interactive

2,638 views 1 this week
5 commentsread comments
1 2 3 4 5
x 4
add to favorites
×
Save as Personal and add changes to this tab that will be seen only by you. Learn more ›
×
You can save this tab as Personal to edit and correct it or add notes. All changes will be seen only by you. Learn more »
launch autoscroll
font size
0
reset
how to read this tab
guitar tuner
edit
Autoscroll
slow
fast
+/-
esc
set tempo
stop
Author
4 AM Forever - Lostprophets
-------------------------------------------------------------------------------
Tabbed by: Snoopy1004
Email: nur-fuer-mathias@web.de

Tuning: Drop D  DADGBE


It's my first Tab I have ever done.
This song is made easier with two guitars.
Listen to the song to get timings for guitar 2
FOLLOW EXACTLY
Please give me an feedback and rate it!

p.m - palm mute
p - pull off


Verse: Guitar 1
E|--------------------------|
B|--------------------------| 
G|-11-----15-----10---------| x3
D|--------------------------|
A|-9------13-----8----------|
D|--------------------------|
p.m
   
   16x     3x    16x


Prechorus: Guitar 1
|----------------------------------|
|----------------------------------|
|--4---6---8------4---6------------|
|--4---6---8------4---6---1--------|
|--2---4---6------2---4---1--------|
|-------------------------1--------|

Guitar 2 (second time instead of playing 9---11---6 play what’s in brackets)
|-------------------------------------------------|
|-------------------------------------------------|
|--------8---------------8---------(11---13---8)--| x2
|--6-8-6---6-8-6---6-8-6---6-8-6------------------|
|-----------------------------------9---11---6----|
|-------------------------------------------------|



Verse: Guitar 1
E|--------------------------|
B|--------------------------| x3
G|-11-----15-----10---------|
D|--------------------------|
A|-9------13-----8----------|
D|--------------------------|
p.m

   16x    3x     16x


Prechorus: Guitar 1
|----------------------------------|
|----------------------------------|
|--4---6---8------4---6---8--------|
|--4---6---8------4---6---8--------|
|--2---4---6------2---4---6--------|
|----------------------------------|

Guitar 2 (second time instead of playing 9---11---6 play what’s in brackets)
|-------------------------------------------------|
|-------------------------------------------------|
|--------8---------------8---------(11---13---8)--| x2
|--6-8-6---6-8-6---6-8-6---6-8-6------------------|
|-----------------------------------9---11---6----|
|-------------------------------------------------|




Verse: Guitar 1
E|--------------------------|
B|--------------------------| x3
G|-11-----15-----10---------|
D|--------------------------|
A|-9------13-----8----------|
D|--------------------------|
p.m

   16x    3x     16x


Prechorus: Guitar 1
|----------------------------------|
|----------------------------------|
|--4---6---8------4---6---8--------|
|--4---6---8------4---6---8--------|
|--2---4---6------2---4---6--------|
|----------------------------------|

Guitar 2 (second time instead of playing 9---11---6 play what’s in brackets)
|-------------------------------------------------|
|-------------------------------------------------|
|--------8---------------8---------(11---13---8)--| x2
|--6-8-6---6-8-6---6-8-6---6-8-6------------------|
|-----------------------------------9---11---6----|
|-------------------------------------------------|


Chorus: Both Guitars
|--------------------------------------------------------------|
|--------------------------------------------------------------|
|----------------4-4-4-4-4---------------------6-6-6-6-6-------|
|-1-1-1-1-1--1---4-4-4-4-4---4--4-4-4-4-4--4---6-6-6-6-6-------| x3
|-1-1-1-1-1--1---2-2-2-2-2---4--4-4-4-4-4--4---4-4-4-4-4-------|
|-1-1-1-1-1--1---------------4--4-4-4-4-4--4-------------------|




Both Guitars
|---------------------------------------------------------------------|
|---------------------------------------------------------------------|
|--4-4-4-4-4-4-4-4--6-6-6-6-6-6-6-6-----------------------------------|
|--4-4-4-4-4-4-4-4--6-6-6-6-6-6-6-6--1-1-1-1-1-1-1-1--3-3-3-3-3-3-3-3-|
|--2-2-2-2-2-2-2-2--4-4-4-4-4-4-4-4--1-1-1-1-1-1-1-1--3-3-3-3-3-3-3-3-|
|------------------------------------1-1-1-1-1-1-1-1--3-3-3-3-3-3-3-3-|

|-------------------------------------------------------|
|-------------------------------------------------------|
|--4-4-4-4-4-4-4-4--6-6-6-6-6-6-6-6---------------------|
|--4-4-4-4-4-4-4-4--6-6-6-6-6-6-6-6------1-1-1-1-1-1-1--|
|--2-2-2-2-2-2-2-2--4-4-4-4-4-4-4-4------1-1-1-1-1-1-1--|
|----------------------------------------1-1-1-1-1-1-1--|




Verse: Guitar 1
E|--------------------------|
B|--------------------------| x2
G|-11-----15-----10---------|
D|--------------------------|
A|-9------13-----8----------|
D|--------------------------|
p.m

   16x    3x     16x



Prechorus: Guitar 1
|----------------------------------|
|----------------------------------|
|--4---6---8------4---6---8--------|
|--4---6---8------4---6---8--------|
|--2---4---6------2---4---6--------|
|----------------------------------|

Guitar 2 (second time instead of playing 9---11---6 play what’s in brackets)
|-------------------------------------------------|
|-------------------------------------------------|
|--------8---------------8---------(11---13---8)--| x2
|--6-8-6---6-8-6---6-8-6---6-8-6------------------|
|-----------------------------------9---11---6----|
|-------------------------------------------------|



Bridge: Guitar 1 (Second time through, don’t play the last chord)
|------------------------------------------------|
|------------------------------------------------|
|------------------------8----------10-----------| X2
|-9----------11----------8----------10-----------|
|-9----------11----------6-----------8-----------|
|-9----------11----------------------------------|

Guitar 2
|-------------------------------------------------|
|-------------------------------------------------|
|---7---------------------------7-----------------| x2
|------7---------------------------7--------------|
|---------5---------------------------5-----------|
|-------------------------------------------------|





Solo:
|-------------------------------------------------------------------4-6-11--|
|---11-11-11/9----7-9-11-9-7-9-7------------7---------------2---------------|
|-----------------------------------------8---8---6-8-6---3---3---1---------|
|---------------------------------------------------------------------------|
|---------------------------------------------------------------------------|
|---------------------------------------------------------------------------|

|--11-9p6--11---11-11-6-9--6-16-16---------18-16-14-16-14-------------------|
|------------------------------------16-14----------------16-14-------------|
|---------------------------------------------------------------------------|
|---------------------------------------------------------------------------|
|---------------------------------------------------------------------------|
|---------------------------------------------------------------------------|

(This bit is extremely fast)
|--18----16----14----18----16----14----18----16----20----16----14----20----16----14-----|
|-----16----16----14----16----16----14----16----16----16----16----16----16----16----14--|
|---------------------------------------------------------------------------------------|
|---------------------------------------------------------------------------------------|
|---------------------------------------------------------------------------------------|
|---------------------------------------------------------------------------------------|

|--18-------------------------------------------------------------|
|-----16----------------------------------------------------------|
|------------8---6---3--------------------------------------------|
|------------------1---1-4--1-3-1------------4--6--3--4-----------|
|----------6---6------------------4-6-4------------------4--6-----|
|--------------------------------------8--------------------------|

(Another very fast bit)
|--14--------------------------------------------------------------------|
|-----16-14-11-14-11-14-11-9-7-9-7-9-7-----------------------------------|
|--------------------------------------8-6-8-6-8-6-----------------------|
|--------------------------------------------------8-6-8-6-8-14/16-16-16-|
|------------------------------------------------------------------------|
|------------------------------------------------------------------------|




Chorus: Both Guitars
|--------------------------------------------------------------|
|--------------------------------------------------------------|
|----------------4-4-4-4-4---------------------6-6-6-6-6-------|
|-1-1-1-1-1--1---4-4-4-4-4---4--4-4-4-4-4--4---6-6-6-6-6-------| x3
|-1-1-1-1-1--1---2-2-2-2-2---4--4-4-4-4-4--4---4-4-4-4-4-------|
|-1-1-1-1-1--1---------------4--4-4-4-4-4--4-------------------|





Bridge: 
|----------------------------------|
|----------------------------------|
|--4---6---8------4---6---8--------|
|--4---6---8------4---6---8--------|
|--2---4---6------2---4---6--------|
|----------------------------------|



Chorus: Both Guitars
|--------------------------------------------------------------|
|--------------------------------------------------------------|
|----------------4-4-4-4-4---------------------6-6-6-6-6-------|
|-1-1-1-1-1--1---4-4-4-4-4---4--4-4-4-4-4--4---6-6-6-6-6-------| x3
|-1-1-1-1-1--1---2-2-2-2-2---4--4-4-4-4-4--4---4-4-4-4-4-------|
|-1-1-1-1-1--1---------------4--4-4-4-4-4--4-------------------|


Both Guitars
|---------------------------------------------------------------------|
|---------------------------------------------------------------------|
|--4-4-4-4-4-4-4-4--6-6-6-6-6-6-6-6-----------------------------------|
|--4-4-4-4-4-4-4-4--6-6-6-6-6-6-6-6--1-1-1-1-1-1-1-1--3-3-3-3-3-3-3-3-|
|--2-2-2-2-2-2-2-2--4-4-4-4-4-4-4-4--1-1-1-1-1-1-1-1--3-3-3-3-3-3-3-3-|
|------------------------------------1-1-1-1-1-1-1-1--3-3-3-3-3-3-3-3-|


|----------------------------------|
|----------------------------------|
|--4---6---8------4---6------------|
|--4---6---8------4---6---1--------|
|--2---4---6------2---4---1--------|
|-------------------------1--------|

            
            
Suggest correction
Creating personal tab
Creating personal tab
You can edit any tab online and save it as your Personal.

You can edit, replace or remove any tab part or add personal notes – all changes will be seen only by you.

Personal tabs can be accessed anytime from any device, even offline.
Learn more »
comments
print report bad tab
5 comments total. Showing first comments.
0 reply
Tasman 10 Apr 21, 2007 08:48 PM

Good tab dunno why I'm looking at it Lostprophets are fairly sucky

0 reply
golden_touch 26 May 10, 2007 06:50 AM

great tab man well done.

0 reply
sum41rules 10 May 13, 2007 09:35 AM

verse sounds crap. look @ the other tabs of 4am. good try with the rest even though it looks like u've copied sum1 elses:)

guest
You may want to rate the tab now too:
select rating
Wanna post a correction for this tab? Suggest correction