Oops, an error
Loading. Please wait.

A Taste Of Things To Come tab

17 views 1 this week
no commentswrite comment
1 2 3 4 5
3 more votes to show rating
add to favorites
×
Save as Personal and add changes to this tab that will be seen only by you. Learn more ›
×
You can save this tab as Personal to edit and correct it or add notes. All changes will be seen only by you. Learn more »
launch autoscroll
font size
0
reset
how to read this tab
guitar tuner
edit
Autoscroll
slow
fast
+/-
esc
set tempo
stop
A TASTE OF THINGS TO COME
As recorded by Lostprophets (From the 1999 EP THE FAKE SOUND OF PROGRESS)

Gtr I (C G C F A D) - 'Lee'

Gtr II (C G C F A D) - 'Mike'

Gtr III (C G C F A D) - 'Keyboards'


   Section A
    Q=138
    D5
   4/4
    Gtrs I, II
    S S S S S S S S S S S S S S S S   W     4x
||----------------------------------|-------||
||o---------------------------------|------o||
||----------------------------------|-------||
||----------------------------------|-------||
||o-0-0-0-0-0-0-0-0-0-0-0-0-0-0-0---|------o||
||--0-0-0-0-0-0-0-0-0-0-0-0-0-0-0---|-------||


   Section B
    D5
    Gtr III
     H.                        Q
||--10------------------------10-----------|
||o----------------------------------------|
||-----------------------------------------|
||-----------------------------------------|
||o----------------------------------------|
||-----------------------------------------|
|
|   Gtrs I, II
|    S  S S S S S S S S S S S  S +S  S +S
||-----------------------------------------|
||o----------------------------------------|
||-----------------------------------------|
||-----------------------------------------|
||o--0--0-0-0-0-0-0-0-0-0-0-0--0-(0)-0-(0)-|
||---0--0-0-0-0-0-0-0-0-0-0-0--0-(0)-0-(0)-|


   W
|-11-----------------------------------|
|--------------------------------------|
|--------------------------------------|
|--------------------------------------|
|--------------------------------------|
|--------------------------------------|
|
|  S S S S S S S S S S S S S +S  S +S
|--------------------------------------|
|--------------------------------------|
|--------------------------------------|
|--------------------------------------|
|----0-0-0-0-0-0-0-0-0-0-0-0-(0)-0-(0)-|
|----0-0-0-0-0-0-0-0-0-0-0-0-(0)-0-(0)-|


                                                          Eb5 F5 Gb5
  W                                     +H                 H
|-8-----------------------------------|-(8)---------------11---------||
|-------------------------------------|------------------------------||
|-------------------------------------|------------------------------||
|-------------------------------------|------------------------------||
|-------------------------------------|------------------------------||
|-------------------------------------|------------------------------||
|
|                                                          PM----|
| S S S S S S S S S S S S S +S  S +S     S  S S S S S S S  E. E. E
|-------------------------------------|------------------------------||
|-------------------------------------|------------------------------||
|-------------------------------------|------------------------------||
|-------------------------------------|------------------------------||
|---0-0-0-0-0-0-0-0-0-0-0-0-(0)-0-(0)-|-----0-0-0-0-0-0-0--1--3--4---||
|---0-0-0-0-0-0-0-0-0-0-0-0-(0)-0-(0)-|-----0-0-0-0-0-0-0--1--3--4---||


  D5
   W
|-10-----------------------------------|
|--------------------------------------|
|--------------------------------------|
|--------------------------------------|
|--------------------------------------|
|--------------------------------------|
|
|  S S S S S S S S S S S S S +S  S +S
|--------------------------------------|
|--------------------------------------|
|--------------------------------------|
|--------------------------------------|
|--0-0-0-0-0-0-0-0-0-0-0-0-0-(0)-0-(0)-|
|--0-0-0-0-0-0-0-0-0-0-0-0-0-(0)-0-(0)-|


   H.                        Q
|-11------------------------13-----------|
|----------------------------------------|
|----------------------------------------|
|----------------------------------------|
|----------------------------------------|
|----------------------------------------|
|
|  S  S S S S S S S S S S S  S +S  S +S
|----------------------------------------|
|----------------------------------------|
|----------------------------------------|
|----------------------------------------|
|-----0-0-0-0-0-0-0-0-0-0-0--0-(0)-0-(0)-|
|-----0-0-0-0-0-0-0-0-0-0-0--0-(0)-0-(0)-|


                                                          F5  Eb5D5
  W                                     +H                 H
|-8-----------------------------------|-(8)---------------11----------||
|-------------------------------------|------------------------------o||
|-------------------------------------|-------------------------------||
|-------------------------------------|-------------------------------||
|-------------------------------------|------------------------------o||
|-------------------------------------|-------------------------------||
|
|                                                          PM----|
| S S S S S S S S S S S S S +S  S +S     S  S S S S S S S  E. E. E
|-------------------------------------|-------------------------------||
|-------------------------------------|------------------------------o||
|-------------------------------------|-------------------------------||
|-------------------------------------|-------------------------------||
|---0-0-0-0-0-0-0-0-0-0-0-0-(0)-0-(0)-|-----0-0-0-0-0-0-0--3--1--0---o||
|---0-0-0-0-0-0-0-0-0-0-0-0-(0)-0-(0)-|-----0-0-0-0-0-0-0--3--1--0----||


              Section C
               D5        EbD5              EbD5
  Gtr III      Gtrs I, II
   W           E Q  Q.   E E   +E  E Q  Q  E E
|-10--------||---------------|-----------------|
|-----------||---------------|-----------------|
|-----------||---------------|-----------------|
|-----------||-0-0--0----1-0-|-(0)-0-0--0--1-0-|
|-----------||-0-0--0----1-0-|-(0)-0-0--0--1-0-|
|-----------||-0-0--0----1-0-|-(0)-0-0--0--1-0-|


              EbD5           Eb5F5 Gb5
  +E  E Q  Q  E E   +E  E Q  E. E. E
|-----------------|------------------|
|-----------------|------------------|
|-----------------|------------------|
|-(0)-0-0--0--1-0-|-(0)-0-0--1--3--4-|
|-(0)-0-0--0--1-0-|-(0)-0-0--1--3--4-|
|-(0)-0-0--0--1-0-|-(0)-0-0--1--3--4-|


  D5        EbD5              EbD5              EbD5           F5 Eb5Gb5
  E Q  Q.   E E   +E  E Q  Q  E E   +E  E Q  Q  E E   +E  E Q  E. E. E
|---------------|-----------------|-----------------|------------------||
|---------------|-----------------|-----------------|------------------||
|---------------|-----------------|-----------------|------------------||
|-0-0--0----1-0-|-(0)-0-0--0--1-0-|-(0)-0-0--0--1-0-|-(0)-0-0--3--1--4-||
|-0-0--0----1-0-|-(0)-0-0--0--1-0-|-(0)-0-0--0--1-0-|-(0)-0-0--3--1--4-||
|-0-0--0----1-0-|-(0)-0-0--0--1-0-|-(0)-0-0--0--1-0-|-(0)-0-0--3--1--4-||


  D5        EbD5              EbD5              EbD5           Eb5F5 Gb5
  Q.   Q.   E E   +E  E Q  Q  E E   +E  E Q  Q  E E   +E  E Q  E. E. E
|---------------|-----------------|-----------------|------------------|
|---------------|-----------------|-----------------|------------------|
|---------------|-----------------|-----------------|------------------|
|-0----0----1-0-|-(0)-0-0--0--1-0-|-(0)-0-0--0--1-0-|-(0)-0-0--1--3--4-|
|-0----0----1-0-|-(0)-0-0--0--1-0-|-(0)-0-0--0--1-0-|-(0)-0-0--1--3--4-|
|-0----0----1-0-|-(0)-0-0--0--1-0-|-(0)-0-0--0--1-0-|-(0)-0-0--1--3--4-|


  D5   D5   EbD5              EbD5              EbD5           Gb5F5 Eb5
  Q.   Q.   E E   +E  E Q  Q  E E   +E  E Q  Q  E E   +E  E Q  E. E. E
|---------------|-----------------|-----------------|------------------||
|---------------|-----------------|-----------------|------------------||
|---------------|-----------------|-----------------|------------------||
|-0----0----1-0-|-(0)-0-0--0--1-0-|-(0)-0-0--0--1-0-|-(0)-0-0--4--3--1-||
|-0----0----1-0-|-(0)-0-0--0--1-0-|-(0)-0-0--0--1-0-|-(0)-0-0--4--3--1-||
|-0----0----1-0-|-(0)-0-0--0--1-0-|-(0)-0-0--0--1-0-|-(0)-0-0--4--3--1-||


 Section D
  D5
  S S S S S S S S S S S S S +S  S +S    S S S S S S S S S S S S S +S  S +S
|-------------------------------------|-------------------------------------|
|-------------------------------------|-------------------------------------|
|-------------------------------------|-------------------------------------|
|-------------------------------------|-------------------------------------|
|-0-0-0-0-0-0-0-0-0-0-0-0-0-(0)-0-(0)-|---0-0-0-0-0-0-0-0-0-0-0-0-(0)-0-(0)-|
|-0-0-0-0-0-0-0-0-0-0-0-0-0-(0)-0-(0)-|---0-0-0-0-0-0-0-0-0-0-0-0-(0)-0-(0)-|


                                                        Eb5F5 Gb5
  S S S S S S S S S S S S S +S  S +S    S S S S S S S S E. E. E
|-------------------------------------|-------------------------||
|-------------------------------------|-------------------------||
|-------------------------------------|-------------------------||
|-------------------------------------|-----------------1--3--4-||
|---0-0-0-0-0-0-0-0-0-0-0-0-(0)-0-(0)-|---0-0-0-0-0-0-0-1--3--4-||
|---0-0-0-0-0-0-0-0-0-0-0-0-(0)-0-(0)-|---0-0-0-0-0-0-0-1--3--4-||


  D5
  S S S S S S S S S S S S S +S  S +S    S S S S S S S S S S S S S +S  S +S
|-------------------------------------|-------------------------------------|
|-------------------------------------|-------------------------------------|
|-------------------------------------|-------------------------------------|
|-------------------------------------|-------------------------------------|
|-0-0-0-0-0-0-0-0-0-0-0-0-0-(0)-0-(0)-|---0-0-0-0-0-0-0-0-0-0-0-0-(0)-0-(0)-|
|-0-0-0-0-0-0-0-0-0-0-0-0-0-(0)-0-(0)-|---0-0-0-0-0-0-0-0-0-0-0-0-(0)-0-(0)-|


                                                        F5 Eb5D5
  S S S S S S S S S S S S S +S  S +S    S S S S S S S S E. E. E
|-------------------------------------|-------------------------||
|-------------------------------------|-------------------------||
|-------------------------------------|-------------------------||
|-------------------------------------|-----------------3--1--0-||
|---0-0-0-0-0-0-0-0-0-0-0-0-(0)-0-(0)-|---0-0-0-0-0-0-0-3--1--0-||
|---0-0-0-0-0-0-0-0-0-0-0-0-(0)-0-(0)-|---0-0-0-0-0-0-0-3--1--0-||


 Section E
  D5
  Gtr I
   |-3--| |-3--|  |-3--| |-3--|    |-3--| |-3--|  |-3--| |-3--|
   E E  E E  E E  E E  E E  E E    E E  E E  E E  E E  E E  E E
|-------------------------------|-------------------------------|
|-------------------------------|-------------------------------|
|-14---14---14---14---14---14---|-15---15---15---15---15---15---|
|-------------------------------|-------------------------------|
|-12---12---12---12---12---12---|-13---13---13---13---13---13---|
|-------------------------------|-------------------------------|
|
| Gtr II
|  |-3--| |-3--|  |-3--| |-3--|    |-3--| |-3--|  |-3--| |-3--|
|  E E  E E  E E  E E  E E  E E    E E  E E  E E  E E  E E  E E
|-------------------------------|-------------------------------|
|-------------------------------|-------------------------------|
|-------------------------------|-------------------------------|
|-------------------------------|-------------------------------|
|--0----0----0----0----0----0---|--0----0----0----0----0----0---|
|--0----0----0----0----0----0---|--0----0----0----0----0----0---|


   |-3--| |-3--|  |-3--| |-3--|    |-3--| |-3--|  |-3--| |-3--|
   E E  E E  E E  E E  E E  E E    E E  E E  E E  E E  E E  E E
|-------------------------------|----------------------------------|
|-------------------------------|----------------------------------|
|-17---17---17---17---17---17---|-15---15---15---15---17---15------|
|-------------------------------|----------------------------------|
|-15---15---15---15---15---15---|-13---13---13---13---15---13------|
|-------------------------------|----------------------------------|
|
|  |-3--| |-3--|  |-3--| |-3--|    |-3--| |-3--|  |-3--| |-3--|
|  E E  E E  E E  E E  E E  E E    E E  E E  E E  E E  E E  E E
|-------------------------------|----------------------------------|
|-------------------------------|----------------------------------|
|-------------------------------|----------------------------------|
|-------------------------------|----------------------------------|
|--0----0----0----0----0----0---|--0----0----0----0----0----0------|
|--0----0----0----0----0----0---|--0----0----0----0----0----0------|


  D5
   |-3--| |-3--|  |-3--| |-3--|    |-3--| |-3--|  |-3--| |-3--|
   E E  E E  E E  E E  E E  E E    E E  E E  E E  E E  E E  E E
|-------------------------------|-------------------------------|
|-------------------------------|-------------------------------|
|-14---14---14---14---14---14---|-15---15---15---15---15---15---|
|-------------------------------|-------------------------------|
|-12---12---12---12---12---12---|-13---13---13---13---13---13---|
|-------------------------------|-------------------------------|
|
|  |-3--| |-3--|  |-3--| |-3--|    |-3--| |-3--|  |-3--| |-3--|
|  E E  E E  E E  E E  E E  E E    E E  E E  E E  E E  E E  E E
|-------------------------------|-------------------------------|
|-------------------------------|-------------------------------|
|-------------------------------|-------------------------------|
|-------------------------------|-------------------------------|
|--0----0----0----0----0----0---|--0----0----0----0----0----0---|
|--0----0----0----0----0----0---|--0----0----0----0----0----0---|


   |-3--| |-3--|  |-3--| |-3--|    |-3--| |-3--|  |-3--| |-3--|
   E E  E E  E E  E E  E E  E E    E E  E E  E E  E E  E E  E E
|-------------------------------|----------------------------------*|
|-------------------------------|----------------------------------*|
|-12---12---12---12---12---12---|-12---12---12---12---12---12------*|
|-------------------------------|----------------------------------*|
|-10---10---10---10---10---10---|-10---10---10---10---10---10------*|
|-------------------------------|----------------------------------*|
|
|  |-3--| |-3--|  |-3--| |-3--|    |-3--| |-3--|  |-3--| |-3--|
|  E E  E E  E E  E E  E E  E E    E E  E E  E E  E E  E E  E E
|-------------------------------|----------------------------------*|
|-------------------------------|----------------------------------*|
|-------------------------------|----------------------------------*|
|-------------------------------|----------------------------------*|
|--0----0----0----0----0----0---|--0----0----0----0----0----0------*|
|--0----0----0----0----0----0---|--0----0----0----0----0----0------*|
Suggest correction
Creating personal tab
Creating personal tab
You can edit any tab online and save it as your Personal.

You can edit, replace or remove any tab part or add personal notes – all changes will be seen only by you.

Personal tabs can be accessed anytime from any device, even offline.
Learn more »
Give kudos to tab author, rate the tab!
1 2 3 4 5
comments
print report bad tab
guest
You may want to rate the tab now too:
select rating
Wanna post a correction for this tab? Suggest correction