Oops, an error
Loading. Please wait.

A Town Called Hypocrisy bass

version 2
version 2

Whole song

Interactive

5,480 views 3 this week
1 commentread comment
1 2 3 4 5
x 7
add to favorites
×
Save as Personal and add changes to this tab that will be seen only by you. Learn more ›
×
You can save this tab as Personal to edit and correct it or add notes. All changes will be seen only by you. Learn more »
launch autoscroll
font size
0
reset
guitar tuner
edit
Autoscroll
slow
fast
+/-
esc
set tempo
stop
Lost Prophets – A Town Called Hypocrisy, from album Liberation Transmission

Drop-D Tuning DADG

Intro
|----------------------------|
|----------------------------|
|------------4h6-6-6-4h6-6-6-|
|-8\-------------------------|

(Pay attention to the rhythm of this section with the muted notes)

|---------------------------------------|
|---------------------------------------|  
|---------------------------------------|    
|-8-x-8-x-8-xx-3-3-x-6-x-6-x-6-xx-4-4-x-|      
                                                 
|----------------------------------------------|
|----------------------------------------------|  
|------------------------------4h6-6-6-4h6-6-6-|    
|-8-x-8-x-8-xx-3-3-x-6-x-6-x-6-----------------| 

Verse
|---------------------------------------|
|---------------------------------------|  
|---------------------------------------|    
|-8-x-8-x-8-xx-3-3-x-6-x-6-x-6-xx-4-4-x-|      
                                                 X2 
|----------------------------------------------|
|----------------------------------------------|  
|------------------------------4h6-6-6-4h6-6-6-|    
|-8-x-8-x-8-xx-3-3-x-6-x-6-x-6-----------------| 

|---------------------------------------|
|---------------------------------------|  
|---------------------------------------|    
|-8-x-8-x-8-xx-3-3-x-6-x-6-x-6-xx-0-0-x-|         
                                                
|----------------------------------------------|
|----------------------------------------------|  
|------------------------------4h6-6-6-6-6-6-6-|    
|-8-x-8-x-8-xx-3-3-x-6-x-6-x-6-----------------| 
  
Chorus
|--------------------------------------------------------|
|--------------------------------------------------------| X4
|--------------------------------------------------------|
|-8-8-8-8-8-8-8-8-86-6-6-8\-3-3-3-3-3-3-3-3-4-4-4--6-6-6-|

Verse
|---------------------------------------|
|---------------------------------------|  
|---------------------------------------|    
|-8-x-8-x-8-xx-3-3-x-6-x-6-x-6-xx-4-4-x-|      
                                                 X2 
|----------------------------------------------|
|----------------------------------------------|  
|------------------------------4h6-6-6-4h6-6-6-|    
|-8-x-8-x-8-xx-3-3-x-6-x-6-x-6-----------------| 

|---------------------------------------|
|---------------------------------------|  
|---------------------------------------|    
|-8-x-8-x-8-xx-3-3-x-6-x-6-x-6-xx-0-0-x-|         
                                                
|----------------------------------------------|
|----------------------------------------------|  
|------------------------------4h6-6-6-6-6-6-6-|    
|-8-x-8-x-8-xx-3-3-x-6-x-6-x-6-----------------| 
  
Chorus
|--------------------------------------------------------|
|--------------------------------------------------------| X4
|--------------------------------------------------------|
|-8-8-8-8-8-8-8-8-86-6-6-8\-3-3-3-3-3-3-3-3-4-4-4--6-6-6-|

Bridge
|--------------------------------------------------------|
|--------------------------------------------------------| X2
|--------------------------------------------------------|
|-8-8-8-8-8-8-8-8-86-6-6-8\-3-3-3-3-3-3-3-3-4-4-4--6-6-6-|

|---------------------------------------|
|---------------------------------------|  
|---------------------------------------|    
|-8-x-8-x-8-xx-3-3-x-6-x-6-x-6-xx-4-4-x-|      
                                               
|----------------------------------------------|
|----------------------------------------------|  
|------------------------------4h6-6-6-6-6-6-6-|    
|-8-x-8-x-8-xx-3-3-x-6-x-6-x-6-----------------|

|---------------------------------------|
|---------------------------------------|  
|---------------------------------------|    
|-8-x-8-x-8-xx-3-3-x-6-x-6-x-6-xx-4-4-x-|         
                                                
|----------------------|
|----------------------|  
|----------------------|    
|-8-x-8-x-8-xx-3-3-x-6-|

Chorus
|--------------------------------------------------------|
|--------------------------------------------------------| X4
|--------------------------------------------------------|
|-8-8-8-8-8-8-8-8-86-6-6-8\-3-3-3-3-3-3-3-3-4-4-4--6-6-6-|

End
|---|
|---|
|---|
|-8-|

That’s what I think it goes like.
Please rate it and email me if you have any problems, 
adam.vaughan@hotmail.co.uk

Adam Vaughan

/ = Slide Up
\ = Slide Down
h = Hammer On
x = Mute (Place finger on string but do not fret note)

            
            
Suggest correction
Creating personal tab
Creating personal tab
You can edit any tab online and save it as your Personal.

You can edit, replace or remove any tab part or add personal notes – all changes will be seen only by you.

Personal tabs can be accessed anytime from any device, even offline.
Learn more »
comments
print report bad tab
1 comment total.
0 reply
thomassoon 172 May 17, 2010 08:15 AM

yes! i've waited so long for a good tab of this song. can't quite work out the timing of the chorus but i'll get there.

great work dude 5*

guest
You may want to rate the tab now too:
select rating
Wanna post a correction for this tab? Suggest correction