Oops, an error
Loading. Please wait.

Broken Hearts Torn Up Letters And The Story Of A Lonely Girl bass

version 1
version 1

Whole song

Interactive

2,384 views 1 this week
3 commentsread comments
1 2 3 4 5
x 4
add to favorites
×
Save as Personal and add changes to this tab that will be seen only by you. Learn more ›
×
You can save this tab as Personal to edit and correct it or add notes. All changes will be seen only by you. Learn more »
launch autoscroll
font size
0
reset
guitar tuner
edit
Autoscroll
slow
fast
+/-
esc
set tempo
stop
Author
Lost Prophets – Broken Hearts, Torn Up Letters & The Story Of A Lonely Girl, from album 
Liberation Transmission

Standard Tuning EADG

Intro (Listen to how these notes slide into each other)
G|-----------------------------------------|
D|-----------------------------------------|
A|-----------------------------------------|
E|-1---1/3---3/5---5/7\-1---1/3---3/5\---0-|

                    (I’m not sure about this last note)
G|--------------------------------9-|
D|--------------------------------7-|
A|--------------------------------0-|
E|-1---1/3---3/5---5/7\-1---1/3-----|

Verse (That first note is a 12, sliding down to 1)
G|----------------------------------------------------------------------|
D|----------------------------------------------------------------------|
A|----------------------------------------------------------------------|
E|-12\1111-3333-5555-5555-1111-3333-5555-5555-10\1111-10\3333-5555-5555-|

G|----------------------------|
D|----------------------------|
A|----------------------------|
E|-10\1111-3333-5555-55555577-|

Chorus (Those are 1s at not 11s)
G|-----------------------------------------------------------------------|
D|-----------------------------------------------------------------------|
A|-----------------------------------------------------------------------|
E|-88888888-33333333-5555555555555555-88888888-33333333-1111111111111111-|

G|---------------------------------------------------------------------------------|
D|---------------------------------------------------------------------------------|
A|-33355577---------------------------33355577-------------------------------------|
E|----------33355577-5555555555555555----------33355577-11111111/1313131313131313\-|

Post Chorus
G|--------------------------------9-|
D|--------------------------------7-|
A|--------------------------------0-|
E|-1---1/3---3/5---5/7\-1---1/3-----|

Verse
G|----------------------------------------------------------------------|
D|----------------------------------------------------------------------|
A|----------------------------------------------------------------------|
E|-12\1111-3333-5555-5555-1111-3333-5555-5555-10\1111-10\3333-5555-5555-|

G|----------------------------|
D|----------------------------|
A|----------------------------|
E|-1111-10\3333-5555-55555577-|

Chorus
G|-----------------------------------------------------------------------|
D|-----------------------------------------------------------------------|
A|-----------------------------------------------------------------------|
E|-88888888-33333333-5555555555555555-88888888-33333333-1111111111111111-|

G|---------------------------------------------------------------------------------|
D|---------------------------------------------------------------------------------|
A|-33355577---------------------------33355577-------------------------------------|
E|----------33355577-5555555555555555----------33355577-11111111/1313131313131313\-|

Post Chorus
G|-------------------------------------------------------------------------|
D|-------------------------------------------------------------------------|
A|-------------------------------------------------------------------------|
E|-11111111-33333333-55555555-77777777-11111111-33333333-55555555-00000000-|

G|-------------------------------------------------------------------------|
D|-33333333-55555555-77777777-99999999-33333333-55555555-77777777-22222222-|
A|-------------------------------------------------------------------------|
E|-------------------------------------------------------------------------|

G|---------------------------------------------------9-|
D|---------------------------------------------------7-|
A|---------------------------------------------------0-|
E|-1111-3333-5555-5555-1111-3333-5555-5555-1111-3333---|

Last Chorus
G|---------------------------------------------------------------------------------|
D|---------------------------------------------------------------------------------|
A|---------------------------------------------------------------------------------|
E|-88888888-33333333-5555555555555555-88888888-33333333-11111111/1313131313151515\-|

G|---------------------------------------------------------------------------------|
D|---------------------------------------------------------------------------------|
A|-33355577---------------------------33355577-------------------------------------|
E|----------33355577-5555555555555555----------33355577-11111111/1313131313131313\-|

G|---------------------------------------------------------------------------------|
D|---------------------------------------------------------------------------------|
A|-33355577---------------------------33355577-------------------------------------|
E|----------33355577-5555555555555555----------33355577-11111111/1313131313151515\-|

G|-----------------------------------------------------------------------|
D|-----------------------------------------------------------------------|
A|-33355577---------------------------33355577---------------------------|
E|----------33355577-5555555555555555----------33355577-1111111111111111-|

End
G|-------------9-|
D|-------------7-|
A|-------------0-|
E|-1111-333xxx---|

That’s what I think it goes like.
Please rate it and email me if you have any problems, adam.vaughan@hotmail.co.uk

Adam Vaughan

\ = Slide Down
~ = let ring
x = Muted note

            
            
Suggest correction
Creating personal tab
Creating personal tab
You can edit any tab online and save it as your Personal.

You can edit, replace or remove any tab part or add personal notes – all changes will be seen only by you.

Personal tabs can be accessed anytime from any device, even offline.
Learn more »
comments
print report bad tab
3 comments total.
0 reply
ClosedRoad 691 Jan 22, 2007 11:45 PM

good tab, chorus is hard to hear but I agree with you, I also think the last one

0 reply
sebbo1337 10 Jan 06, 2008 01:02 AM

yyh its deffinately the 2nd version.

it is 1s yes not 11s??

0 reply
Lemurs4mangos 1,616 Feb 15, 2009 04:52 AM

Definately dude, its the ones below.

GREAT TAB!!! 5*'s

guest
You may want to rate the tab now too:
select rating
Wanna post a correction for this tab? Suggest correction