Oops, an error
Loading. Please wait.

Cant Catch Tomorrow Good Shoes Wont Save You This Time tab

version 2
version 2

Whole song

Interactive

8,135 views 1 this week
no commentswrite comment
1 2 3 4 5
2 more votes to show rating
add to favorites
×
Save as Personal and add changes to this tab that will be seen only by you. Learn more ›
×
You can save this tab as Personal to edit and correct it or add notes. All changes will be seen only by you. Learn more »
launch autoscroll
font size
0
reset
how to read this tab
guitar tuner
backing track
0:00
0:00
edit
Autoscroll
slow
fast
+/-
esc
set tempo
stop
Song: Can't Catch Tomorrow (Good Shoes Won't Save You This Time)
Band: Lostprophets
Album: Liberation Transmission


GTR1

Drop D

intro (after "1,2,1,2,3,4")
e|-----------------------------------|
B|-----------------------------------|
G|-----------------------------------|
D|-2-2-222-2-2-222-2-2-222-222-4-5-7-|
A|-2-2-222-2-2-222-2-2-222-222-4-5-7-|
E|-2-2-222-2-2-222-2-2-222-222-4-5-7-|

e|------------------------------------------|
B|------------------------------------------|
G|------------------------------------------|
D|-10-10-10-101010-10-10-10-7-7-7-7777-5-44-|
A|-10-10-10-101010-10-10-10-7-7-7-7777-5-44-|
E|-10-10-10-101010-10-10-10-7-7-7-7777-5-44-|

repeat intro (end intro on E5)

verse1

e|-7-7-7-7-7-7-|repeat till pre-chorus 
B|-8-8-8-8-8-8-|starts
G|-9-9-9-9-9-9-|
D|-9-9-9-9-9-9-|
A|-------------|
E|-------------|

Pre-Chorus
e|----------------------------------------------------|
B|----------------------------------------------------|
G|-5-5-5-5-555----------------------------------------|
D|-5-5-5-5-555-7-7-7-7-777-7-7-2-2-2-222-4-4-4-444444-|
A|-3-3-3-3-333-7-7-7-7-777-7-7-2-2-2-222-4-4-4-444444-|
E|-------------7-7-7-7-777-7-7-2-2-2-222-4-4-4-444444-|

Chorus
e|----------------------------------------|
B|----------------------------------------|
G|-5555555555-----------777777777-999-777-|
D|-5555555555-555555555-777777777-999-777-|
A|-3333333333-555555555-555555555-777-555-|
E|------------555555555-------------------|

e|-----------------------------------------|
B|-----------------------------------------|
G|-5555555555-----------777777777-999-1212-|
D|-5555555555-555555555-777777777-999-1212-|
A|-3333333333-555555555-555555555-777-1010-|
E|------------555555555--------------------|
repeat chorus

break:
e|--------------------------------------|
B|--------------------------------------|
G|--------------------------------------|
D|-2-2-222-2-2-222-2-2-222-222-4-5-7-2~-|
A|-2-2-222-2-2-222-2-2-222-222-4-5-7-2~-|
E|-2-2-222-2-2-222-2-2-222-222-4-5-7-2~-|

verse2:same as verse 1
prechorus 2: same as pre-chorus
chorus 2: same as chorus

solo:
e|-----------------------------------------------------|
B|-----------------------------------------------------|
G|-5-5-5-5-555-----------------------------------------|
D|-5-5-5-5-555-7-7-7-7-777-7-7-2-2-2-222-4-4-4-44-5555-|
A|-3-3-3-3-333-7-7-7-7-777-7-7-2-2-2-222-4-4-4-44-5555-|
E|-------------7-7-7-7-777-7-7-2-2-2-222-4-4-4-44-5555-|

e|---------------------------------------------|
B|---------------------------------------------|
G|-5-5-5-5-555---------------------------------|
D|-5-5-5-5-555-7-7-7-7-777-7-7-2-2-2-222-4-4-4-|
A|-3-3-3-3-333-7-7-7-7-777-7-7-2-2-2-222-4-4-4-|
E|-------------7-7-7-7-777-7-7-2-2-2-222-4-4-4-|
break:
e|--------|x2
B|-8-7-8~-|
G|-9-7-9~-|
D|-9-7-9~-|
A|--------|
E|--------|

repeat chorus twice
                        2 
outro: keep playing E5 (2) till song ends (slide down)
                        2
______________________________________________________________________________

GTR2

intro:
e|------|--------------|repeat this part 
B|------|-17-----15-15-|till intro ends
G|------|---16---------|
D|-14-14|-----14-------|
A|------|--------------|
E|------|--------------|

verse 1: if gtr2's playing something, then i can't figure it out lol
pre-chorus: same as verse 1 lol
chorus: strum gtr1's chorus chords
break:repeat intro riff
verse2:same as verse 1
prechorus 2: same as pre-chorus
chorus 2: same as chorus
solo:
e|-----------------------------------------|
B|-----------------------------------------|
G|-7/9-/12-/14-\9-/11\7\4/7/9-/12-/14-/16~-|
D|-----------------------------------------|
A|-----------------------------------------|
E|-----------------------------------------|

repeat chorus twice

outro:keep playing intro riff till song ends (slide down)

sorry if gtr2 is a bit messed up but it's the best i could do

            
            
Suggest correction
Creating personal tab
Creating personal tab
You can edit any tab online and save it as your Personal.

You can edit, replace or remove any tab part or add personal notes – all changes will be seen only by you.

Personal tabs can be accessed anytime from any device, even offline.
Learn more »
Give kudos to tab author, rate the tab!
1 2 3 4 5
comments
print report bad tab
guest
You may want to rate the tab now too:
select rating
Wanna post a correction for this tab? Suggest correction