Oops, an error
Loading. Please wait.

Cry Me A River bass

version 2
version 2

Whole song

Interactive

1,007 views 1 this week
1 commentread comment
1 2 3 4 5
3 more votes to show rating
add to favorites
×
Save as Personal and add changes to this tab that will be seen only by you. Learn more ›
×
You can save this tab as Personal to edit and correct it or add notes. All changes will be seen only by you. Learn more »
launch autoscroll
font size
0
reset
guitar tuner
edit
Autoscroll
slow
fast
+/-
esc
set tempo
stop
Lostprophets
Cry Me A River
Bass tab

I think its in drop D... might not be though 
still sounds good in drop D   =]


intro riff  [0.13]
G|----------------|-----------|-------------|-----------11h13-|
D|----------11-13-|--14-13-11-|----14-13-11-|--14-13-11-------|
A|-11-13-14-------|-----------|-14----------|-----------------|
E|----------------|-----------|-------------|-----------------|

G|----------------|-----------|-------------|
D|----------11-13-|--14-13-11-|----14-13-11-|
A|-11-13-14-------|-----------|-14----------|
E|----------------|-----------|-------------|


Verse 
G----------------------------------------------| \
D----------------------------------------------|  \
A------------6-6--6-6--7-7--7-7----------------|   \
D-6-6-6-6-6----------------------11-11--11-11--|    \
 					             x3
G----------------------------------------------|    /
D----------------------------------------------|   /
A------------6-6--6-6--7-7--7-7----------------|  /
D-6-6-6-6-6----------------------11-11--11-11/-| /


Chorus
G-------------------------------------|
D-------------------------------------| x6
A----------66666666----------44444444-|
D-66666666----------22222222----------|


Verse 2
G-------------------------------------|
D-------------------------------------| x2
A-------------------------------------|
D-66666666-11111111-22222222-44444444-|

quick break

G---------------------------------|
D---------------------------------| 
A---------------------------------|
D-6666-11111111-22222222-44444444-|

G-------------------------------------|
D-------------------------------------|
A-------------------------------------|
D-66666666-11111111-22222222-44444444-|

G----------------------------------------------|
D----------------------------------------------|
A------------6-6--6-6--7-7--7-7----------------|
D-6-6-6-6-6----------------------11-11--11-11--|
 					        
G----------------------------------------------|
D----------------------------------------------|
A------------6-6--6-6--7-7--7-7----------------|
D-6-6-6-6-6----------------------11-11--11-11/-|


Chorus
G-------------------------------------|
D-------------------------------------| x6
A----------66666666----------44444444-|
D-66666666----------22222222----------|

G---------------------------------------|
D---------------------------------------| x2
A----------6-6--6-6----------4-4-4--4-2-|
D-6-6--6-6----------2-2--2-2------------|


Solo
G|---------------------------------------|
D|---------------------------------------| x2
A|---------------------------------------|
D|-6-6-6-6\--1-1-1-1-2-2-2-2-4-4-4-1-1-1-|

G|--------------------------------|
D|--------------------------------|
A|--------------------------------|
D|-6~-----------4/13~-----6~------|

G|----------------|-------------|-----------------|
D|----------11-13-|-13-14-13-11-|----14-13-11-----|
A|-11-13-14-------|-------------|-14---------13/--|
E|----------------|-------------|-----------------|


Chorus
G-------------------------------------|
D-------------------------------------| x6
A----------66666666----------44444444-|
D-66666666----------22222222----------|


G-------------------------------------|
D-------------------------------------| repeat until outro
A-------------------------------------|
D-6--6~-------6--6~-------6--6~-------|


outro
G----------------------------------|
D----------------------------------| repeat till end
A----------------------------------|
D-6-666-66666-9-8--6-666-66666-9-8-|
Suggest correction
Creating personal tab
Creating personal tab
You can edit any tab online and save it as your Personal.

You can edit, replace or remove any tab part or add personal notes – all changes will be seen only by you.

Personal tabs can be accessed anytime from any device, even offline.
Learn more »
Give kudos to tab author, rate the tab!
1 2 3 4 5
comments
print report bad tab
1 comment total.
0 reply
HiMyNameIsMatt 190 Jun 11, 2007 07:10 AM

I realise now that some parts have E labeled instead of D but I tabbed the song as if it was in D =] so ignore the E's

guest
You may want to rate the tab now too:
select rating
Wanna post a correction for this tab? Suggest correction