Oops, an error
Loading. Please wait.

Everyday Combat tab

version 4
version 4

Whole song

Interactive

1,877 views 1 this week
3 commentsread comments
1 2 3 4 5
1 last vote to show rating
add to favorites
×
Save as Personal and add changes to this tab that will be seen only by you. Learn more ›
×
You can save this tab as Personal to edit and correct it or add notes. All changes will be seen only by you. Learn more »
launch autoscroll
font size
0
reset
how to read this tab
guitar tuner
edit
Autoscroll
slow
fast
+/-
esc
set tempo
stop
Song: Everyday Combat
Artist: Lostprohets
Album: Liberation Transmission
Tabber: Oliver Bishop
Guitarist 1 (lead): Lee Gaze
Guitarist 2 (Rhythm): Mike Lewis
Tuning: Drop D (ebgdad)

There are seven parts to this song, you can figure out when to play each bit:
Intro
Verse
Pre-Chorus
Chorus
Pre-Verse
Solo
Outro

h= hammer on
p= pull off
b= bend up
r= release bend
/= slide
ah= artificial harmonic
~= vibrato
XX= dead notes
#= staccato- scrape string

Intro
Guitar 1
e-------------------------|
b-------------------------|
g-------------------------|
d-------------------------|
a-----2--2h4p2p0--22----2-|
d-4-4------------2--0-2---|


Verse
Guitar 1
e----------------------------------|
b----------------------------------|
g----------------------------------|
d-4------7-------2--------4--------|
a-4------7-------2--------4--------|
d-4------7-------2--------4--------|

Guitar 2
e----------------------------------|
b---7777---7777----7777-----7777---|
g----------------------------------|
d----------------------------------|
a----------------------------------|
d----------------------------------|


Pre Chorus
Guitar 2
e----------------------------------|
b----------------------------------|
g----------------------------------|
d-0---------------2----------------|
a-0---------------2----------------|
d-0---------------2----------------|

Chorus
e----------------------------------|
b----------------------------------|
g---------7-----9------------------|
d-4-------7-----9--7--9------------|
a-4-------5-----7--7--9------------|
d-4----------------7--9------------|

Pre Verse
Guitar 1- this is the intro played again

Guitar 2
e----------------------------------|
b----------------------------------|
g-5/7-------5/7-------5/7------5---|
d----------------------------------|
a----------------------------------|
d----------------------------------|

Solo

The solo is very tricky so i have put it in more detail than the rest of the 
tab was pretty good but i have made some changes.

Guitar 1


 2:55                                    2:57.5
e----------------------------------------12h16p12h14p12------h16p12h14p12--|
b----------------------------12----12-14---------------h14p12--------------|
g----------13----13-14-13-14----14-----------------------------------------|
d-16-14-16----16-----------------------------------------------------------|
a--------------------------------------------------------------------------|
d--------------------------------------------------------------------------|
                                       3:00
e------h16p14p12h16p14p12-19-16-14-16--------------------------------------|
b-h14p12-------------------------------------------------------------------|
g----------------------------------16-14-13--14-13-11--16/18-16-14/16-14-13|
d--------------------------------------------------------------------------|
a--------------------------------------------------------------------------|
d--------------------------------------------------------------------------|
             3:04              3:05                                3:08
e--5--------------------------------------------------------------------|
b-----7-----------------------------------------------------------------|
g---------6-------b4r-2-------------------------------------------------|
d---------------------------2-4-----------------------------------------|
a------------------------4--------------------4#-5#-7#-9#---------------|
d-----------------------------------------------------------------------|
              3:11                          3:13
e--------------------------------------------------------------------------|
b----------12-10-9-------------------14--12-xxx---14-12-10-9---------------|
g---nh-------------9----9-11-9---------------------------------------------|
d--------------------11----------------------------------------------------|
a--------------------------------------------------------------------------|
d--------------------------------------------------------------------------|

e----------------------------------------14----------14-16-17-19-21~~~~~~~-|
b-------------------------------14-15-17----14-15-17-----------------------|
g----------11-13-14-17-13-14-17--------------------------------------------|
d-11-12-14-----------------------------------------------------------------|
a--------------------------------------------------------------------------|
d--------------------------------------------------------------------------|

Guitar 2
e------------------------------------|
b------------------------------------|
g------------------------------------|    x 4
d-44444444777777770000000022222222---|
a-44444444777777770000000022222222---|
d-44444444777777770000000022222222---|

Outro
Guitar 1
e-00-5-0-00-2s7--00-5-0-2-0-2s7------|
b------------------------------------|
g------------------------------------|
d------------------------------------|
a------------------------------------|
d------------------------------------|

Guitar 2(comes in at about 4:30)
at the start of every \"don\'t think ure safe...\"
e----|
b----|
g----|
d-4--|
a-4--|
d-4--|

Then end with a bit of verse

Well thats it, the solo is very difficult (to tab and play)- thanks to Baumli for giving 
a place to start with that. Rest of the song should be quite easy. This took me a long 
please rate it and leave a comment- need any help e-mail olibishop@btinternet.com

            
            
Suggest correction
Creating personal tab
Creating personal tab
You can edit any tab online and save it as your Personal.

You can edit, replace or remove any tab part or add personal notes – all changes will be seen only by you.

Personal tabs can be accessed anytime from any device, even offline.
Learn more »
Give kudos to tab author, rate the tab!
1 2 3 4 5
comments
print report bad tab
3 comments total.
0 reply
Rickenbastard 10 Sep 01, 2007 08:36 AM

the intro riff and verse riffs are incorrect, the main intro riff has incorrect notes and the 2nd guitar part to the verse is in the wrong octave

0 reply
Mr. spikyhair 10 Mar 08, 2008 04:42 AM

its a solo tab, the rest isnt that good. nice job on the solo tho

0 reply
SMBoo28 499 Aug 31, 2008 04:37 PM

sadly there are still 0 good tabs for this song except that is for the solo which you did a great job on
besides the rest of the song is easy as hell to figure out i figured it out a long time ago

guest
You may want to rate the tab now too:
select rating
Wanna post a correction for this tab? Suggest correction