Oops, an error
Loading. Please wait.

For All These Times Kid For All These Times bass

493 views 1 this week
no commentswrite comment
1 2 3 4 5
3 more votes to show rating
add to favorites
×
Save as Personal and add changes to this tab that will be seen only by you. Learn more ›
×
You can save this tab as Personal to edit and correct it or add notes. All changes will be seen only by you. Learn more »
launch autoscroll
font size
0
reset
guitar tuner
edit
Autoscroll
slow
fast
+/-
esc
set tempo
stop
Author
For All These Times Kid, For All These Times by LostProphets

Intro
                                   x2
G|------------------------------------------------------------|
D|------------------------------------------------------------|
A|11(X16)7(X16)9(X16)11(X16)----------------------------------|
E|------------------------------------------------------------|

Verse
X2
G|---------------------------------------------------|
D|---------------------------------------------------|
A|--------------7777-7777-7~-44-44-4~-4/99-99-9~-9999|
E|44-44-4~-4444--------------------------------------|

Post Chorus

G|----------------------------------------------------|
D|----------------------------------------------------|
A|----------------------------------------------------|
E|44-44-444444-44---444444----------------------------|

Chorus
G|---------------------------------------|
D|---------22222222-66666666-44444444----|
A|22222222-------------------------------|
E|---------------------------------------|

G|---------------------------------------|
D|---------22222222----------------------|
A|22222222-------------------------------|
E|------------------44444444-22222222----|

"Give Me Something"
G|---------------------------------------|
D|---------22222222-66666666-44444444----|
A|22222222-------------------------------|
E|---------------------------------------|

G|44444444----------------------------|-----|
D|---------22222222-66666666-44444444-|-----|
A|------------------------------------|-----|
E|------------------------------------|-4~--|

Verse
X2
G|---------------------------------------------------|
D|---------------------------------------------------|
A|--------------7777-7777-7~-44-44-4~-4/99-99-9~-9999|
E|44-44-4~-4444--------------------------------------|


Post Chorus

G|----------------------------------------------------|
D|----------------------------------------------------|
A|----------------------------------------------------|
E|44-44-444444-44---444444----------------------------|

Chorus
G|---------------------------------------|
D|---------22222222-66666666-44444444----|
A|22222222-------------------------------|
E|---------------------------------------|

G|---------------------------------------|
D|---------22222222----------------------|
A|22222222-------------------------------|
E|------------------44444444-22222222----|

"Give Me Something"
G|---------------------------------------|
D|---------22222222-66666666-44444444----|
A|22222222-------------------------------|
E|---------------------------------------|

G|44444444----------------------------|-----|
D|---------22222222-66666666-44444444-|-----|
A|------------------------------------|-----|
E|------------------------------------|-4~--|

Post Chorus

G|----------------------------------------------------|
D|----------------------------------------------------|
A|----------------------------------------------------|
E|44-44-444444-44---444444----------------------------|

Brigde
X2
G|------------------------------------------------------------|
D|------------------------------------------------------------|
A|11(X16)7(X16)9(X16)11(X16)----------------------------------|
E|------------------------------------------------------------|

Chorus begins with only drums, Stomp your feet and clap to the rhythm for extra effect 
performing.
instruments come back in on "Give Me Something";
"Give Me Something"
G|---------------------------------------|
D|---------22222222-66666666-44444444----|
A|22222222-------------------------------|
E|---------------------------------------|

G|44444444----------------------------|---Cut straight------|
D|---------22222222-66666666-44444444-|---Into Bridge-------|
A|------------------------------------|---------------------|
E|------------------------------------|-no pause this time--|

Repeat Brigde X2(Tip: Come in on 6(x16)instead of 11(x16)to make it easier)

Outro (3:35)

G|-----------------------------------------------------|
D|-----------------------------------------------------|
A|-----------------------------------------------------|
E|44-44-444444-44--4444--44-44-444444-44-4444--4~------|
Suggest correction
Creating personal tab
Creating personal tab
You can edit any tab online and save it as your Personal.

You can edit, replace or remove any tab part or add personal notes – all changes will be seen only by you.

Personal tabs can be accessed anytime from any device, even offline.
Learn more »
Give kudos to tab author, rate the tab!
1 2 3 4 5
comments
print report bad tab
guest
You may want to rate the tab now too:
select rating
Wanna post a correction for this tab? Suggest correction