Oops, an error
Loading. Please wait.

For Hes A Jolly Good Felon bass

2,956 views 1 this week
no commentswrite comment
1 2 3 4 5
1 last vote to show rating
add to favorites
×
Save as Personal and add changes to this tab that will be seen only by you. Learn more ›
×
You can save this tab as Personal to edit and correct it or add notes. All changes will be seen only by you. Learn more »
launch autoscroll
font size
0
reset
guitar tuner
edit
Autoscroll
slow
fast
+/-
esc
set tempo
stop
Author
Difficulty
With Lyrics ;)




G |------------------|
D |------------------|
A |------------------|
E |--4-6-4-6<--------| x1



Simon, don't stop with all the lyin' 
'Cause we know where you're from 
You get along by taking things that don't belong to you 
So can you feel it 
ohwohohh 
Oh when you steal it 
ohwohohh 
All that adrenaline, living in sin, you can sell it all for half the price

G |------------------------------------------------------------|
D |----------------------2---------------------2-----5-3-2-----|
A |--------------5-5-3-5---3-0-3-5-3--5-5-3-5---3-0------------|
E |------------------------------------------------------------| x4

Oh what would your mother say?

G |------------------|
D |------------------|
A |------------------|
E |--2---------------| x1


We take to get along 
We're holding on, we're holding on 
And all these estates we're on 


G |--------------------------------------------|
D |--------------------------------------------|
A |-------------------------33333333-----------|
E |------66666666-22222222----------11111111---| )
                                                 ) x1
G |--------------------------------------------| )
D |---------------------------------22222222---|
A |------------------------33333333------------|
E |-----66666666-22222222----------------------|              

Everyones singing 

G |------------------|
D |------------------|
A |------------------|
E |-6<------4-6-4-6<-| x1


Mikey, oh where'd you get the Nike's 
'Cause I know that you ain't got the notes to drop 
Left alone you'd take the fucking lot 
Not succeding 
ohwohohh 
Nothing to believe in 
ohwohohh 
'Cause it will all go wrong, everythings gone 
Now your futures on the roll of a dice

G |------------------------------------------------------------|
D |----------------------2---------------------2-----5-3-2-----|
A |--------------5-5-3-5---3-0-3-5-3--5-5-3-5---3-0------------|
E |------------------------------------------------------------| x4

And thats the price that you pay

G |------------------|
D |------------------|
A |------------------|
E |--2---------------| x1

We take to get along 
We're holding on, we're holding on 
All these estates we're on? 
Everyones singing 
We don't need anyone 
We're holding on, we're holding on 
All the police are wrong 
So we're still singing 

G |--------------------------------------------|
D |--------------------------------------------|
A |-------------------------33333333-----------|
E |------66666666-22222222----------11111111---| )
                                                 ) x2
G |--------------------------------------------| )
D |---------------------------------22222222---|
A |------------------------33333333------------|
E |-----66666666-22222222----------------------|        


And seven days a week 
Patrolling all the streets 
I try to stop but I can't help it 
I know you call me weak 
My future is oblique 
I take to get along 
But I still need it 


G |--------------------------------------------| 
D |---333333333333-5555------------------------|
A |---------------------00000000-33333333------|
E |--------------------------------------------|  x2          


G |--------------------------------------------| 
D |---3333333333333333-22222222-55555555-------|
A |--------------------------------------------|
E |--------------------------------------------|    x1



G |------------------|
D |------------------|
A |------------------|
E |-6<------4-6-4-6<-| x1




G |------------------------------------------------------------|
D |------------------2-----------------------------------------|
A |-3-5-3-5--3--5-3-----3--0--3-5-3-5--3--5-3--7--7--7<--------|
E |-------------------------------------------------------------| x1


We take to get along 
We're holding on, we're holding on 
And all these estates we're on 
Everyones still singing 
We take to get along 
We're holding on, we're holding on 
All these estates we're on 
Everyones singing 

We don't need anyone 
We're holding on, we're holding on 
We don't need anyone 
Everyones signing 
We don't need anyone 
We're holding on, we're holding on 
We don't need anyone 
'Cause we're still singing.


G |--------------------------------------------|
D |--------------------------------------------|
A |-------------------------33333333-----------|
E |-----66666666-22222222----------11111111----| )
                                                 ) x3
G |--------------------------------------------| )
D |---------------------------------22222222---|
A |------------------------33333333------------|
E |-----66666666-22222222----------------------|  


G |------------------|
D |------------------|
A |------------------|
E |--6<--------------| x1








Suggest correction
Creating personal tab
Creating personal tab
You can edit any tab online and save it as your Personal.

You can edit, replace or remove any tab part or add personal notes – all changes will be seen only by you.

Personal tabs can be accessed anytime from any device, even offline.
Learn more »
Give kudos to tab author, rate the tab!
1 2 3 4 5
comments
print report bad tab
guest
You may want to rate the tab now too:
select rating
Wanna post a correction for this tab? Suggest correction