Oops, an error
Loading. Please wait.

Interlude 4 Tab

7 views 1 this week
no commentswrite comment
1 2 3 4 5
3 more votes to show rating
add to favorites
launch autoscroll
font size
0
reset
how to read this tab
guitar tuner
Autoscroll
slow
fast
+/-
esc
set tempo
stop
Help us to improve Ultimate-Guitar.com Take our survey!
×
Author
Difficulty
Band: Lostprophets
Track: Interlude IV
Album: The Fake Sound Of Progress

"I bend...bend my mind"

E|--13-13-------14--13-13-------11--13-13--------|
B|--------14--------------14--------------14-----|
G|-----------15--------------15--------------15--| Repeat until..
D|-----------------------------------------------|
A|-----------------------------------------------|
E|-----------------------------------------------|

"I hear a little feedback on that.. Just a little"

E|--1~~--1---------------------------------|
B|---------1-------------------------------|
G|-----------3~~--1~~--1-----1~~-----------|
D|-------------------------1---------------|
A|-----------------------1-----------------|
E|-----------------------------------------|
Suggest correction
Give kudos to tab author, rate the tab!
1 2 3 4 5
comments
print report bad tab
guest
You may want to rate the tab now too:
select rating
Wanna post a correction for this tab? Suggest correction