Oops, an error
Loading. Please wait.

Last Summer bass

version 2
version 2

Whole song

2,550 views 6 this week
no commentswrite comment
1 2 3 4 5
x 4
add to favorites
×
Save as Personal and add changes to this tab that will be seen only by you. Learn more ›
×
You can save this tab as Personal to edit and correct it or add notes. All changes will be seen only by you. Learn more »
launch autoscroll
font size
0
reset
guitar tuner
edit
Autoscroll
slow
fast
+/-
esc
set tempo
stop
Author
Lostprophets - Last Summer

               [I do not own the rights to this track.] 
This is simply my interpretation of what should be played in the bass part. 
               [No Copyright Laws have been violated.]

You can play this song in standard;

Bass Enters Intro at approx 0:18
Intro:
G|--------------------| x2
D|--------------------|
A|--------------------|
E|-000-2-3/8----------|

Verse:				
G|----------------------------------|
D|----------------------------------|
A|-33333333--------5555555555555555-|
E|---------33333333-----------------|
				
G|----------------------------------|
D|-------------------------55554444-|
A|-33333333--------55555555---------|
E|---------33333333-----------------|

G|----------------------------------|
D|----------------------------------|
A|-33333333--------5555555555555555-|
E|---------33333333-----------------|

G|------------------------------------|
D|------------------------------------|
A|-33333333--------555555557777991010-| < 10th Fret twice, not 1st and open.
E|---------33333333-------------------|

Pre-chorus:
G|----------------------------------|
D|----------------------------------|
A|-33333333333333562222222222222233-|
E|----------------------------------|

Chorus:				x4
G|----------------------------------|
D|----------------------------------|
A|-55555555222222223333333333333234-|
E|----------------------------------|

Bridge:
G|--------------------------------|
D|--------------------------------|
A|-----------------------5r\3m----| Let D ring, quickly slide down to muted C
E|-0-0-3/8----0---00-0------------|

G|--------------------|
D|--------------------|
A|--------------------|
E|-000-2-3/8----------|

Verse:				
G|-------------------------------------|
D|-------------------------------------|
A|-15/33333333--------5555555555555555-|
E|------------55555555-----------------|

G|----------------------------------|
D|-------------------------55554444-|
A|-33333333--------55555555---------|
E|---------33333333-----------------|

G|----------------------------------|
D|----------------------------------|
A|-33333333--------5555555555555555-|
E|---------33333333-----------------|

G|------------------------------------|
D|------------------------------------|
A|-33333333--------555555557777991010-| < 10th Fret twice, not 1st and open.
E|---------33333333-------------------|

Pre-chorus:
G|----------------------------------|
D|----------------------------------|
A|-33333333333333562222222222222233-|
E|----------------------------------|

Chorus:				x4
G|----------------------------------|
D|----------------------------------|
A|-55555555222222223333333333333234-|
E|----------------------------------|

Bridge:
G|--------------------------------|
D|--------------------------------|
A|-----------------------5r\3m----| Let D ring, quickly slide down to muted C
E|-0-0-3/8----0---00-0------------|

G|--------------------|
D|--------------------|
A|--------------------|
E|-000-2-3/8----------|


During Guitar Solo:		                                      
G|--------------------------------------------------------------------------|
D|------------------5-4-----------------------------------------------------|
A|--(19\)77777777757----5-333333333333-35-22222222222-202-33333333333355663-|
E|--------------------------------------------------------------------------|
    (19\); optional Slide down to 7th fret
G|---------------------------------------------------------------------|
D|---------------------------------------------------------------------|
A|-7777777777777777--333333333333-35-22222222222-202-33333333333355663-|
E|---------------------------------------------------------------------|

Chorus:				x4
G|----------------------------------|
D|----------------------------------|
A|-55555555222222223333333333333234-|
E|----------------------------------|  
slow down last bar to;

Ending:
G|----|
D|----|
A|-5r-|
E|----|

            
            
Suggest correction
Creating personal tab
Creating personal tab
You can edit any tab online and save it as your Personal.

You can edit, replace or remove any tab part or add personal notes – all changes will be seen only by you.

Personal tabs can be accessed anytime from any device, even offline.
Learn more »
comments
print report bad tab
guest
You may want to rate the tab now too:
select rating
Wanna post a correction for this tab? Suggest correction