Oops, an error
Loading. Please wait.

Last Summer tab

version 6
version 6

Whole song

79 views 1 this week
no commentswrite comment
1 2 3 4 5
3 more votes to show rating
add to favorites
×
Save as Personal and add changes to this tab that will be seen only by you. Learn more ›
×
You can save this tab as Personal to edit and correct it or add notes. All changes will be seen only by you. Learn more »
launch autoscroll
font size
0
reset
how to read this tab
guitar tuner
edit
Autoscroll
slow
fast
+/-
esc
set tempo
stop
About this tab version
Fixed the intro , the pre-chorus , and added time stamps to make it more understandable. Was this info helpful? Yes No
-------------------------------------------------------------------------------
                             Last Summer-lostprophets
-------------------------------------------------------------------------------

Tabbed by:okman
Artist:lostprophets
Album:Start Something
Song:Last Summer
Tuning:Drop D (e B G D A D)

 Intro
 00:00-00:31  Mike Lewis (Rhythm Guitar)
e|-------------------------------------------------------------------------------------|
B|--------12-10-----------------10h12--------------------------------------------------|
G|---9-9-9--9--9-12-9-9-9-9-12-9-------------------------------------------------------|
D|-------------------------------------------------------------------------------------|x10
A|-------------------------------------------------------------------------------------|
D|-------------------------------------------------------------------------------------|
 P.M.. . .  .  .    . . . .    .

 00:06-00:27  Lee Gaze (Lead Guitar)
e|-------------------------------------------------------------------------------------|
B|-------------------------------------------------------------------------------------|
G|---9-9-9-12-11-7---------------------------------------------------------------------|
D|---9-9-9-12-12-7---------------------------------------------------------------------|x4
A|---7-7-7-10-10-5---------------------------------------------------------------------|
D|-------------------------------------------------------------------------------------|

 Pre-Chorus
 00:31-01:09  Lee Gaze (Lead Guitar)
e|-------------------------------------------------------------------------------------|
B|-------------------------------------------------------------------------------------|
G|-------------------------------------------------------------------------------------|
D|-------12-12-------12-12-------12-12-------12-12-------------------------------------|x6
A|-----10----10----10-----10---10-----10---10-----10-----------------------------------|
D|---10----------10-----------9-----------9--------------------------------------------|
 
 00:56-01:09 Mike Lewis (Rhytm Guitar)
e|-------------------------------------------------------------------------------------|
B|-------------------------------------------------------------------------------------|
G|-------------------------------------------------------------------------------------|
D|---10~-------5~-------12~------------------------------------------------------------|x2
A|---10~-------5~-------12~------------------------------------------------------------|
D|---10~-------5~-------12~------------------------------------------------------------|
 
 Bridge
 01:09-01:15 Mike Lewis (Rhytm Guitar)
e|-------------------------------------------------------------------------------------|
B|-------------------------------------------------------------------------------------|
G|-------------------------------------------------------------------------------------|
D|-------------------------------------------------------------------------------------|x1
A|---10-10-10-10-10-10-10-10-10-10-10-10-10-10-10\9-9-9-9-9-9-9-9-9-9-9-9-9-9----------|
D|---10-10-10-10-10-10-10-10-10-10-10-10-10-10-10\9-9-9-9-9-9-9-9-9-9-9-9-9-9----------|
 P.M. .  .  .  .  .  .  .  .  .  .  .  .  .  .  . . . . . . . .

 Chorus
 01:15-01:21 Mike Lewis (Rhytm Guitar)
e|-------------------------------------------------------------------------------------|
B|-------------------------------------------------------------------------------------|
G|-------------------------------------------------------------------------------------|
D|-------------------------------------------------------------------------------------|x1
A|---12-12-12-12-12-12-12\9-9-9-9-9-9-9/10-10-10-10-10-10-10---------------------------|
D|---12-12-12-12-12-12-12\9-9-9-9-9-9-9/10-10-10-10-10-10-10---------------------------|
 
 01:22-01:39 Mike Lewis (Rhytm Guitar)
e|-------------------------------------------------------------------------------------|
B|-------------------------------------------------------------------------------------|
G|-------------------------------------------------------------------------------------|
D|-------------------------------------------------------------------------------------|x1
A|---12-12-12-12-12-12-12\9-9-9-9-9-9-9/10-10-10-10-10-10-10/14-14---------------------|
D|---12-12-12-12-12-12-12\9-9-9-9-9-9-9/10-10-10-10-10-10-10/14-14---------------------|
 
 01:29-01:35 Mike Lewis (Rhytm Guitar)
e|-------------------------------------------------------------------------------------|
B|-------------------------------------------------------------------------------------|
G|-------------------------------------------------------------------------------------|
D|-------------------------------------------------------------------------------------|x1
A|---12-12-12-12-12-12-12\9-9-9-9-9-9-9/10-10-10-10-10-10-10---------------------------|
D|---12-12-12-12-12-12-12\9-9-9-9-9-9-9/10-10-10-10-10-10-10---------------------------|
 
 01:35-01:41 Mike Lewis (Rhytm Guitar)
e|-------------------------------------------------------------------------------------|
B|-------------------------------------------------------------------------------------|
G|-------------------------------------------------------------------------------------|
D|-------------------------------------------------------------------------------------|x1
A|---12-12-12-12-12-12-12\9-9-9-9-9-9-9/10-10-10-10-10-10-10/14-14---------------------|
D|---12-12-12-12-12-12-12\9-9-9-9-9-9-9/10-10-10-10-10-10-10/14-14---------------------|
 
01:25-01:41 Lee Gaze (Lead Guitar)
e|-------------------------------------------------------------------------------------|
B|-------------------------------------------------------------------------------------|
G|---12-12-12-------12-12-12----12-12-12---12-12-12------12-12-12---12-12-12--12-12-12-|
D|---12-12-12-------12-12-12----12-12-12---12-12-12------12-12-12---12-12-12--12-12-12-|x2
A|---10-10-10-------10-10-10----10-10-10---10-10-10------10-10-10---10-10-10--10-10-10-|
D|-------------------------------------------------------------------------------------|
 
 
 01:41-01:53  Mike Lewis (Rhythm Guitar)
e|-------------------------------------------------------------------------------------|
B|--------12-10-----------------10h12--------------------------------------------------|
G|---9-9-9--9--9-12-9-9-9-9-12-9-------------------------------------------------------|
D|-------------------------------------------------------------------------------------|x4
A|-------------------------------------------------------------------------------------|
D|-------------------------------------------------------------------------------------|
 P.M.. . .  .  .    . . . .    .

 01:41-01:49  Lee Gaze (Lead Guitar)
e|-------------------------------------------------------------------------------------|
B|-------------------------------------------------------------------------------------|
G|---9-9-9-12-11-7---------------------------------------------------------------------|
D|---9-9-9-12-12-7---------------------------------------------------------------------|x4
A|---7-7-7-10-10-5---------------------------------------------------------------------|
D|-------------------------------------------------------------------------------------|
 
 Pre-Chorus
 01:53-02:18  Lee Gaze (Lead Guitar)
e|-------------------------------------------------------------------------------------|
B|-------------------------------------------------------------------------------------|
G|-------------------------------------------------------------------------------------|
D|-------12-12-------12-12-------12-12-------12-12-------------------------------------|x6
A|-----10----10----10-----10---10-----10---10-----10-----------------------------------|
D|---10----------10-----------9-----------9--------------------------------------------|
 
 02:03-02:16 Mike Lewis (Rhytm Guitar)
e|-------------------------------------------------------------------------------------|
B|-------------------------------------------------------------------------------------|
G|-------------------------------------------------------------------------------------|
D|---10~-------5~-------12~------------------------------------------------------------|x2
A|---10~-------5~-------12~------------------------------------------------------------|
D|---10~-------5~-------12~------------------------------------------------------------|

 Bridge
 02:18-02:24 Mike Lewis (Rhytm Guitar)
e|-------------------------------------------------------------------------------------|
B|-------------------------------------------------------------------------------------|
G|-------------------------------------------------------------------------------------|
D|-------------------------------------------------------------------------------------|x1
A|---10-10-10-10-10-10-10-10-10-10-10-10-10-10-10\9-9-9-9-9-9-9-9-9-9-9-9-9-9----------|
D|---10-10-10-10-10-10-10-10-10-10-10-10-10-10-10\9-9-9-9-9-9-9-9-9-9-9-9-9-9----------|
 P.M. .  .  .  .  .  .  .  .  .  .  .  .  .  .  . . . . . . . .
 
 Chorus
 02:24-02:30 Mike Lewis (Rhytm Guitar)
e|-------------------------------------------------------------------------------------|
B|-------------------------------------------------------------------------------------|
G|-------------------------------------------------------------------------------------|
D|-------------------------------------------------------------------------------------|x1
A|---12-12-12-12-12-12-12\9-9-9-9-9-9-9/10-10-10-10-10-10-10---------------------------|
D|---12-12-12-12-12-12-12\9-9-9-9-9-9-9/10-10-10-10-10-10-10---------------------------|
 
 02:30-01:37 Mike Lewis (Rhytm Guitar)
e|-------------------------------------------------------------------------------------|
B|-------------------------------------------------------------------------------------|
G|-------------------------------------------------------------------------------------|
D|-------------------------------------------------------------------------------------|x1
A|---12-12-12-12-12-12-12\9-9-9-9-9-9-9/10-10-10-10-10-10-10/14-14---------------------|
D|---12-12-12-12-12-12-12\9-9-9-9-9-9-9/10-10-10-10-10-10-10/14-14---------------------|
 
 02:37-02:43 Mike Lewis (Rhytm Guitar)
e|-------------------------------------------------------------------------------------|
B|-------------------------------------------------------------------------------------|
G|-------------------------------------------------------------------------------------|
D|-------------------------------------------------------------------------------------|x1
A|---12-12-12-12-12-12-12\9-9-9-9-9-9-9/10-10-10-10-10-10-10---------------------------|
D|---12-12-12-12-12-12-12\9-9-9-9-9-9-9/10-10-10-10-10-10-10---------------------------|
 
 02:43-02:50 Mike Lewis (Rhytm Guitar)
e|-------------------------------------------------------------------------------------|
B|-------------------------------------------------------------------------------------|
G|-------------------------------------------------------------------------------------|
D|-------------------------------------------------------------------------------------|x1
A|---12-12-12-12-12-12-12\9-9-9-9-9-9-9/10-10-10-10-10-10-10/14-14---------------------|
D|---12-12-12-12-12-12-12\9-9-9-9-9-9-9/10-10-10-10-10-10-10/14-14---------------------|
 
 02:24-02:50 Lee Gaze (Lead Guitar)
e|-------------------------------------------------------------------------------------|
B|-------------------------------------------------------------------------------------|
G|---12-12-12-------12-12-12----12-12-12---12-12-12------12-12-12---12-12-12--12-12-12-|
D|---12-12-12-------12-12-12----12-12-12---12-12-12------12-12-12---12-12-12--12-12-12-|x4
A|---10-10-10-------10-10-10----10-10-10---10-10-10------10-10-10---10-10-10--10-10-10-|
D|-------------------------------------------------------------------------------------|
 
 02:50-03:03  Mike Lewis (Rhythm Guitar)
e|-------------------------------------------------------------------------------------|
B|--------12-10-----------------10h12--------------------------------------------------|
G|---9-9-9--9--9-12-9-9-9-9-12-9-------------------------------------------------------|
D|-------------------------------------------------------------------------------------|x4
A|-------------------------------------------------------------------------------------|
D|-------------------------------------------------------------------------------------|
 P.M.. . .  .  .    . . . .    .

 02:50-02:58  Lee Gaze (Lead Guitar)
e|-------------------------------------------------------------------------------------|
B|-------------------------------------------------------------------------------------|
G|---9-9-9-12-11-7---------------------------------------------------------------------|
D|---9-9-9-12-12-7---------------------------------------------------------------------|x4
A|---7-7-7-10-10-5---------------------------------------------------------------------|
D|-------------------------------------------------------------------------------------|

 Solo
 03:03-03:09 Lee Gaze (Lead Guitar)
e|----------------------------15-14----------------------------------------------------|
B|---15-15-15-15-------------------15--------------------------------------------------|
G|--------------14\12-12-12-12---------------------------------------------------------|
D|-------------------------------------------------------------------------------------|x2
A|-------------------------------------------------------------------------------------|
D|-------------------------------------------------------------------------------------|

 03:09-03:15 Lee Gaze (Lead Guitar)
e|----------------------------15-14--15-14--17-14--19-14-------------------------------|
B|---15-15-15-15--------------------15----15-----15-----15-----------------------------|
G|--------------14\12-12-12-12---------------------------------------------------------|
D|-------------------------------------------------------------------------------------|x1
A|-------------------------------------------------------------------------------------|
D|-------------------------------------------------------------------------------------|

 03:15-03:18 Lee Gaze (Lead Guitar)
e|----------------------------15-14----------------------------------------------------|
B|---15-15-15-15-------------------15--------------------------------------------------|
G|--------------14\12-12-12-12---------------------------------------------------------|
D|-------------------------------------------------------------------------------------|x1
A|-------------------------------------------------------------------------------------|
D|-------------------------------------------------------------------------------------|

 03:18-03:27 Lee Gaze (Lead Guitar)
e|----------------------------15-14---------------------------------------------------------------|
B|---15-15-15-15-------------------15-15/17\15-15/17\15-15/17\15----------------------------------|
G|--------------14\12-12-12-12----------------------------------14/16/14-14/16/14-12-12-11-12-11--|
D|----------------------------------------------------------------------------------------------12|x1
A|------------------------------------------------------------------------------------------------|
D|------------------------------------------------------------------------------------------------|

 03:15-03:27  Mike Lewis (Lead Guitar)
e|---3~-----3~-------------------------------------------------------------------------|
B|---3~-----1~-----3~----3~---3-3-3-3-3-3-3--------------------------------------------|
G|---0~-----0~-----0~----0~---0-0-0-0-0-0-0--------------------------------------------|
D|---2~-----2~-----2~----2~---2-2-2-2-2-2-2--------------------------------------------|x1
A|---2~-----2~-----2~----2~---2-2-2-2-2-2-2--------------------------------------------|
D|-------------------------------------------------------------------------------------|

 Outro
 03:28-03:32 Mike Lewis (Rhytm Guitar)
e|-------------------------------------------------------------------------------------|
B|-------------------------------------------------------------------------------------|
G|-------------------------------------------------------------------------------------|
D|-------------------------------------------------------------------------------------|x1
A|---12-12-12-12-12-12-12\9-9-9-9-9-9-9/10-10-10-10-10-10-10---------------------------|
D|---12-12-12-12-12-12-12\9-9-9-9-9-9-9/10-10-10-10-10-10-10---------------------------|
 
 
 03:28-03:35 Mike Lewis (Rhytm Guitar)
e|-------------------------------------------------------------------------------------|
B|-------------------------------------------------------------------------------------|
G|-------------------------------------------------------------------------------------|
D|-------------------------------------------------------------------------------------|x1
A|---12-12-12-12-12-12-12\9-9-9-9-9-9-9/10-10-10-10-10-10-10/14-14---------------------|
D|---12-12-12-12-12-12-12\9-9-9-9-9-9-9/10-10-10-10-10-10-10/14-14---------------------|
 

 03:35-03:40 Mike Lewis (Rhytm Guitar)
e|-------------------------------------------------------------------------------------|
B|-------------------------------------------------------------------------------------|
G|-------------------------------------------------------------------------------------|
D|-------------------------------------------------------------------------------------|x1
A|---12-12-12-12-12-12-12\9-9-9-9-9-9-9/10-10-10-10-10-10-10---------------------------|
D|---12-12-12-12-12-12-12\9-9-9-9-9-9-9/10-10-10-10-10-10-10---------------------------|
 
 03:40-03:47 Mike Lewis (Rhytm Guitar)
e|-------------------------------------------------------------------------------------|
B|-------------------------------------------------------------------------------------|
G|-------------------------------------------------------------------------------------|
D|-------------------------------------------------------------------------------------|x1
A|---12-12-12-12-12-12-12\9-9-9-9-9-9-9/10-10-10-10-10-10-10/14-14---------------------|
D|---12-12-12-12-12-12-12\9-9-9-9-9-9-9/10-10-10-10-10-10-10/14-14---------------------|

 03:27-03:54 Sampled
e|-------------------------------------------------------------------------------------|
B|-------------------------------------------------------------------------------------|
G|---12-12-12-------12-12-12----12-12-12---12-12-12------12-12-12---12-12-12--12-12-12-|
D|---12-12-12-------12-12-12----12-12-12---12-12-12------12-12-12---12-12-12--12-12-12-|x2
A|---10-10-10-------10-10-10----10-10-10---10-10-10------10-10-10---10-10-10--10-10-10-|
D|-------------------------------------------------------------------------------------|
 
 03:27-03:54 Lee Gaze (Lead Guitar)
e|----------------------------15-14----------------------------------------------------|
B|---15-15-15-15-------------------15--------------------------------------------------|
G|--------------14\12-12-12-12---------------------------------------------------------|
D|-------------------------------------------------------------------------------------|x8
A|-------------------------------------------------------------------------------------|
D|-------------------------------------------------------------------------------------|
 03:47-03:54 Mike Lewis (Rhytm Guitar)
e|-------------------------------------------------------------------------------------|
B|-------------------------------------------------------------------------------------|
G|-------------------------------------------------------------------------------------|
D|-------------------------------------------------------------------------------------|x1
A|---12-12-12-12-12-12-12\9-9-9-9-9-9-9/10-10-10-10-10-10-10/12~-----------------------|
D|---12-12-12-12-12-12-12\9-9-9-9-9-9-9/10-10-10-10-10-10-10/12~-----------------------|


************************************

| /   slide up
| \   slide down
| h   hammer-on
| p   pull-off
| ~   vibrato
| +   harmonic
| x   Mute note
| b   Bend
| pb  Pre-bend
| br  Bend release
| pbr Pre-bend release
| brb Bend release bend

************************************

            
            
Suggest correction
Creating personal tab
Creating personal tab
You can edit any tab online and save it as your Personal.

You can edit, replace or remove any tab part or add personal notes – all changes will be seen only by you.

Personal tabs can be accessed anytime from any device, even offline.
Learn more »
Give kudos to tab author, rate the tab!
1 2 3 4 5
comments
print report bad tab
guest
You may want to rate the tab now too:
select rating
Wanna post a correction for this tab? Suggest correction