Oops, an error
Loading. Please wait.

Last Train Home Acoustic chords

version 3
version 3
12,315 views 27 this week
4 commentsread comments
1 2 3 4 5
x 21
add to favorites
×
Save as Personal and add changes to this tab that will be seen only by you. Learn more ›
×
You can save this tab as Personal to edit and correct it or add notes. All changes will be seen only by you. Learn more »
launch autoscroll
font size
0
reset
transpose
0
reset
simplify chords
display chords
guitar tuner
backing track
0:00
0:00
edit
Autoscroll
slow
fast
+/-
esc
set tempo
stop
Author
Difficulty
Strumming
There is no strumming pattern for this song yet. and get +5 IQ
this is my 2nd tab, first time doing chords.
the song is actually in drop D but if your playing it acoustic this is the best way


chords
G-320033
Cadd9-x32033
D-xx0232
Dsus4-xx0233
Em7-022033




intro
 e---------------------------------------------------------|
 b------12----12----12----12----12----12----12----12-------|
 g----12----12----12----12----12----12----12----12---------|
 d--10----10----10----10-----------------------------------|
 a---------------------------------------------------------|
 E--------------------------12----12----12----12-----------|




e-------------------------------------------------------|
b-----12---12---12---12-----10---10---10---10-----------|
g---12---12---12---12-----12---12---12---12-------------|
d--0----0----0----0-----0----0----0-----0---------------|
a-------------------------------------------------------|
E-------------------------------------------------------|

intro chords:  Cadd9  Em7  Dsus4  D

***NOTE*** FOR THE VERSE IF YOU WANT TO PLAY IT LIKE THE SONG THEN JUST PLAY THE
CHORDS FROM THE INTRO WITHOUT PICKING THEM*

VERSE 1

Cadd9      Em7            Dsus4   D   Dsus4  D
To every broken heart in here

Cadd9      Em7            Dsus4   D   Dsus4   D--
Love was once a part, but now it's disappeared

--D                   Cadd9             Em7               Dsus4   D  Dsus4  D
She told me that it's all a part of the choices that your making

--D           Cadd9
Even when you think you're right

    Em7                 Dsus4   D  Dsus4  D
You have to give to take


PRECHORUS

Cadd9
But there's still tomorrow

G
Forget the sorrow

    Em7             Dsus4      D
And I can be on the last train home

         Cadd9
Watch it pass the day

       G
As it fades away

        Em7
No more time to care

       Dsus4 D         BREAK* Cadd9
No more time, today


CHORUS

       Cadd9                Em7
But we sing If we're going nowhere

        Dsus4             D
Yeah we sing If it's not enough

       Cadd9                Em7
And we sing Sing without a reason

         Dsus4   D
To ever fall in love


VERSE 2


Cadd9    Em7            Dsus4   D   Dsus4  D--
I wonder if you're listening

-D            Cadd9
Picking up on the signals


Em7            Dsus4  D Dsus4  D
Sent back from within

D                       Cadd9          Em7              
Dsus4 D Dsus4 D
Sometimes it feels like I don't really know whats going on

D             Cadd9               Em7        Dsus4   
 D  Dsus4
Time and time again it seems like everything is wrong in here



PRECHORUS

Cadd9
But there's still tomorrow

G
Forget the sorrow

    Em7             Dsus4      D
And I can be on the last train home

         Cadd9
Watch it pass the day

       G
As it fades away

        Em7
No more time to care

       Dsus4 D         BREAK* Cadd9
No more time, today





CHORUS

       Cadd9                Em7
But we sing If we're going nowhere

        Dsus4             D
Yeah we sing If it's not enough

       Cadd9                Em7
And we sing Sing without a reason

         Dsus4   D
To ever fall in love



Interlude Part:  Cadd9 Em7 Dsus4 D

BRIDGE
 "Well We sing..."
 e--------------------------------------------------------------------|
 b-------12----12/13/12-----12----12----12----12----10---10---10---10-|
 g-----12----12-----------12----12----12----12----12---12---12---12---|
 d---10----10------------------------------------0----0----0----0-----|
 a--------------------------------------------------------------------|
 E----------------------12----12----12----12--------------------------|






CHORUS


       Cadd9                Em7
And we sing Sing without a reason

         Dsus4   D   Dsus4
To ever fall in love



       Cadd9                Em7
But we sing If we're going nowhere

        Dsus4             D
Yeah we sing If it's not enough

       Cadd9                Em7
And we sing Sing without a reason

         Dsus4     D            Dsus4
To never fall in love, to never fall in love


again

pick chords for outro:  Cadd9  Em7   Dsus4  D

end on  G
Suggest correction
Creating personal tab
Creating personal tab
You can edit any tab online and save it as your Personal.

You can edit, replace or remove any tab part or add personal notes – all changes will be seen only by you.

Personal tabs can be accessed anytime from any device, even offline.
Learn more »
comments
print report bad tab
4 comments total. Showing first comments.
0 reply
Keego_10 10 Jun 06, 2012 11:18 AM

Don't know why this has no comments or ratings. For a simple version, it sounds damn good!

0 reply
SynzShadow 32 Nov 16, 2012 10:37 AM

yeah this is fantastic, the only thing I have is for the riff/intro/verse thingy, its not this:
e-------------------------------------------------------|
b-----12---12---12---12-----10---10---10---10-----------|
g---12---12---12---12-----12---12---12---12-------------|
d--0----0----0----0-----0----0----0-----0---------------|
a-------------------------------------------------------|
E-------------------------------------------------------|

its actually this:
e-------------------------------------------------------|
b-----12---12---12---12---10---10---10---10-----------|
g---12---12---12---12---12---12---12---12-------------|
d-------------------------------------------------------|
a--0----0----0----0----0----0----0----0----------------|
E-------------------------------------------------------|

0 reply
EXFRAWEN 10 May 16, 2013 06:48 PM

OMG!, yeah what a nice version, sounds very good =) desserves more stars =)

guest
You may want to rate the tab now too:
select rating
Wanna post a correction for this tab? Suggest correction