Oops, an error
Loading. Please wait.

Last Train Home Acoustic tab

version 6
28,023 views 6 this week
3 commentsread comments
1 2 3 4 5
x 7
add to favorites
×
Save as Personal and add changes to this tab that will be seen only by you. Learn more ›
×
You can save this tab as Personal to edit and correct it or add notes. All changes will be seen only by you. Learn more »
launch autoscroll
font size
0
reset
how to read this tab
guitar tuner
backing track
0:00
0:00
edit
Autoscroll
slow
fast
+/-
esc
set tempo
stop
-----------------------------------------------------------------------
               Last Train Home Acoustic - Lostprophets
-----------------------------------------------------------------------
Tabbed by: Steve (hungryhamster)

This song was played live on a couple of radio stations like K-rock and 99X
and I’ve seen a few people looking for tabs of it.

Tuning: Drop D (DADGBE)

e|------3------------------------------------------|
B|-------3-----3-------------3------------3--------|
G|--------------0------2------------0--------------|
D|-------------------------------------------------|
A|--3-------3-------3-----3-----3------3-----------|
D|-------------------------------------------------|

e|-------3-----------------------------------------|
B|--------3-----3-------------3------------3-------|
G|---------------0------2------------0-------------|
D|-------------------------------------------------|
A|-3-3-------3-------3-----3-----3------3----------|
D|-------------------------------------------------|

e|----------3--------------------------------------|
B|------------3--------------3------0--------------|
G|--------------0-------0------0--------0----------|
D|----------------0---4---4------4--------4--------|
A|-------------------------------------------------|
D|--0-2--------------------------------------------|

e|-----------------2h3p2---------------------------|
B|-----------------3----------------------3--------|
G|-------2h0p2-------------2h0p2----------0--------|
D|-------------------------------------------------|
A|----------------------------------0h2------------|
D|--0----------------------------------------------|

e|-------3-----------------------------------------|
B|--------3-----3--------------3-------------3-----|
G|---------------0------2-------------0------------|
D|-------------------------------------------------|
A|--2h3------3-------3-------3-----3------3--------|
D|-------------------------------------------------|

e|-------3-----------------------------------------|
B|--------3-----3-------------3------------3-------|
G|---------------0------2------------0-------------|
D|-------------------------------------------------|
A|-3-3-------3-------3-----3-----3------3----------|
D|-------------------------------------------------|

e|----------3--------------------------------------|
B|------------3--------------3------0--------------|
G|--------------0-------0------0--------0----------|
D|----------------0---4---4------4--------4--------|
A|-------------------------------------------------|
D|--0-2--------------------------------------------|

e|-----------------2h3p2---------------------------|
B|-----------------3---------------------3---------|
G|-------2h0p2-------------2h0p2---------0---------|
D|-------------------------------------------------|
A|----------------------------------0h2------------|
D|--0----------------------------------------------|

e|--3------------------|------3---3--3-------------|
B|--3------------------|------3---3--3-------------|
G|--0------------------|------0---0--0-------------|
D|--2------------------|------2---2--2-------------|
A|--3------------------|------2---3--3-------------|
D|---------------------|---------------------------|

e|--------3-------------------------------|
B|----------3--------------3-----0--------|
G|o-----------0-------0------0------0-----|
D|o-------------0---4---4------4------4---|
A|----------------------------------------|
D|--0h2-----------------------------------|

e|-----------------2h3p2---------------------------|
B|-----------------3----------------------3--------|
G|-------2h0p2-------------2h0p2----------0--------|
D|-------------------------------------------------|
A|----------------------------------0h2------------|
D|--0----------------------------------------------|

e|-------3-----------------------------------------|
B|--------3-----3-------------3--------------3-----|
G|---------------0------2-------------0------------|
D|-------------------------------------------------|
A|--2h3------3-------3-------3-----3------3--------|
D|-------------------------------------------------|

e|-------3---------------------------------------------|
B|--------3-----3-------------3------------3-----------|
G|---------------0------2------------0----------------o|
D|----------------------------------------------------o|x3
A|-3-3-------3-------3-----3-----3------3--------------|
D|-----------------------------------------------------|

e|----------3----------------------------------|
B|------------3--------------3------0----------|
G|--------------0-------0------0--------0------|
D|----------------0---4---4------4--------4----|
A|---------------------------------------------|
D|--0-2----------------------------------------|

e|-----------------2h3p2-----------------|
B|-----------------3-------------------3-|
G|-------2h0p2-------------2h0p2-------0-|
D|---------------------------------------|
A|---------------------------------0h2---|
D|--0------------------------------------|

     Strum Pattern: (d=down u=up)
    d d u u u d d d  d u    d d u u u d d d  d u
e|--3-3-3-3-3-3-3-3--x-x-|--3-3-3-3-3-3-3-3--x-x--|
B|--3-3-3-3-3-3-3-3--x-x-|--3-3-3-3-3-3-3-3--x-x--|
G|o-0-0-0-0-0-0-0-0--x-x-|--x-x-x-x-x-x-x-x--x-x-o|
D|o-2-2-2-2-2-2-2-2--x-x-|--0-0-0-0-0-0-0-0--x-x-o|x4
A|--3-3-3-3-3-3-3-3--x-x-|--0-0-0-0-0-0-0-0--x-x--|
D|-----------------------|--0-0-0-0-0-0-0-0--x-x--|

   D   d  u d   d u d u d u        d   d   d u d u  u d  d u d u 
e|-3---3--3-3---3-3-3-3-3-3---|----3---3---3-3-3-3--3-3--3-3-3-3-----|
B|-3---3--3-3---3-3-3-3-3-3---|----3---3---2-2-2-2--2-2--2-2-2-2-----|
G|-2---2--2-2---2-2-2-2-2-2---|o---0---0---0-0-0-0--0-0--0-0-0-0-----|
D|----------------------------|o---2---2---2-2-2-2--2-2--2-2-2-2-----|
A|----------------------------|----3---3---3-3-3-3--3-3--3-3-3-3-----|
D|----------------------------|--------------------------------------|

    d  d  d u d u  u d  d u d u     d  d  d u d u u  d u u u  d d  d u d  u u d u u
e|--3--3--3-3-3-3--3-3--3-3-3-3--|--3--3--3-3-3-2-2--2-2-2-2--3-3--3-3-3--2-2-x-0-0---|
B|--3--3--3-3-3-3--3-3--3-3-3-3--|--3--3--3-3-3-3-3--3-3-3-3--3-3--3-3-3--3-3-x-3-3---|
G|--0--0--0-0-0-0--0-0--0-0-0-0--|--2--2--2-2-2-2-2--2-2-2-2--2-2--2-2-2--2-2-x-2-2--o|
D|--x--x--x-x-x-x--x-x--x-x-x-x--|--0--0--0-0-0-0-0--0-0-0-0--0-0--0-0-0--0-0-x-0-0--o|
A|--2--2--2-2-2-2--2-2--2-2-2-2--|----------------------------------------------------|
D|--2--2--2-2-2-2--2-2--2-2-2-2--|----------------------------------------------------|

e|----3------3-------------------------------------|
B|------3-----3------------3------------3----------|
G|-------------------2------------0----------------|
D|-------------------------------------------------|
A|--3-----3--------3-----3-----3------3------------|
D|-------------------------------------------------|

e|--------3----------------------------------------|
B|---------3-----3-------------3------------3------|
G|o---------------0------2------------0------------|
D|o------------------------------------------------|
A|--3-3-------3-------3-----3-----3------3---------|
D|-------------------------------------------------|

e|----------3--------------------------------------|
B|------------3--------------3------0--------------|
G|--------------0-------0------0--------0----------|
D|----------------0---4---4------4--------4--------|
A|-------------------------------------------------|
D|--0-2--------------------------------------------|

e|-----------------2h3p2---------------------------|
B|-----------------3----------------------3--------|
G|-------2h0p2-------------2h0p2----------0--------|
D|-------------------------------------------------|
A|----------------------------------0h2------------|
D|--0----------------------------------------------|

e|-------3-----------------------------------------|
B|--------3-----3-------------3--------------3-----|
G|---------------0------2-------------0-----------o|
D|------------------------------------------------o|x3
A|--2h3------3-------3-------3-----3------3--------|
D|-------------------------------------------------|

e|-------3-----------------------------------------|
B|--------3-----3-------------3------------3-------|
G|---------------0------2------------0-------------|
D|-------------------------------------------------|
A|-3-3-------3-------3-----3-----3------3----------|
D|-------------------------------------------------|

e|----------3----------------------------------|
B|------------3--------------3------0----------|
G|--------------0-------0------0--------0------|
D|----------------0---4---4------4--------4----|
A|---------------------------------------------|
D|--0-2----------------------------------------|

e|-----------------2h3p2-----------------|
B|-----------------3-------------------3-|
G|-------2h0p2-------------2h0p2-------0-|
D|---------------------------------------|
A|---------------------------------0h2---|
D|--0------------------------------------|

     Strum Pattern: (d=down u=up)
    d d u u u d d d  d u    d d u u u d d d  d u
e|--3-3-3-3-3-3-3-3--x-x-|--3-3-3-3-3-3-3-3--x-x--|
B|--3-3-3-3-3-3-3-3--x-x-|--3-3-3-3-3-3-3-3--x-x--|
G|o-0-0-0-0-0-0-0-0--x-x-|--x-x-x-x-x-x-x-x--x-x-o|
D|o-2-2-2-2-2-2-2-2--x-x-|--0-0-0-0-0-0-0-0--x-x-o|x4
A|--3-3-3-3-3-3-3-3--x-x-|--0-0-0-0-0-0-0-0--x-x--|
D|-----------------------|--0-0-0-0-0-0-0-0--x-x--|

   D   d  u d   d u d u d u        d   d   d u d u  u d  d u d u 
e|-3---3--3-3---3-3-3-3-3-3---|----3---3---3-3-3-3--3-3--3-3-3-3-----|
B|-3---3--3-3---3-3-3-3-3-3---|----3---3---2-2-2-2--2-2--2-2-2-2-----|
G|-2---2--2-2---2-2-2-2-2-2---|o---0---0---0-0-0-0--0-0--0-0-0-0-----|
D|----------------------------|o---2---2---2-2-2-2--2-2--2-2-2-2-----|
A|----------------------------|----3---3---3-3-3-3--3-3--3-3-3-3-----|
D|----------------------------|--------------------------------------|

Slow down towards the end of the song
    d  d  d u d u  u d  d u d u     d  d  d u d u u  d u u u  d d  d u d  u u d u u
e|--3--3--3-3-3-3--3-3--3-3-3-3--|--3--3--3-3-3-2-2--2-2-2-2--3-3--3-3-3--2-2-x-0-0---|
B|--3--3--3-3-3-3--3-3--3-3-3-3--|--3--3--3-3-3-3-3--3-3-3-3--3-3--3-3-3--3-3-x-3-3---|
G|--0--0--0-0-0-0--0-0--0-0-0-0--|--2--2--2-2-2-2-2--2-2-2-2--2-2--2-2-2--2-2-x-2-2--o|
D|--x--x--x-x-x-x--x-x--x-x-x-x--|--0--0--0-0-0-0-0--0-0-0-0--0-0--0-0-0--0-0-x-0-0--o|x3
A|--2--2--2-2-2-2--2-2--2-2-2-2--|----------------------------------------------------|
D|--2--2--2-2-2-2--2-2--2-2-2-2--|----------------------------------------------------|

e|-----7------10—10-----15---------|
B|-----8------10-10-----15---------|
G|-----7------7--7------12---------|
D|-----0------0--0------0----------|
A|---------------------------------|
D|---------------------------------|

            
            
Suggest correction
Creating personal tab
Creating personal tab
You can edit any tab online and save it as your Personal.

You can edit, replace or remove any tab part or add personal notes – all changes will be seen only by you.

Personal tabs can be accessed anytime from any device, even offline.
Learn more »
comments
print report bad tab
3 comments total.
0 reply
prophets 47 Jul 14, 2006 03:14 PM

Man, thts a gd tab and finally it has been tabbed to sound like the song, nice job!!

0 reply
bouncymagumbos 10 Feb 03, 2007 02:51 AM

quality tab, its helped loads!!!

0 reply
hungryhamster 57 Apr 01, 2007 02:57 PM

If anyone wants to hear this to see how the song goes:
http://www.dragonninja.com/audio/Lostprophets-Acoustic%20Session%20%2899x%20Live%20X%2023-07-04%29-dragonninja.wma

or its on this page as "99x Live Acoustic Set, USA 23-07-04"
http://www.dragonninja.com/media/songs/live-songs/

guest
You may want to rate the tab now too:
select rating
Wanna post a correction for this tab? Suggest correction