Oops, an error
Loading. Please wait.

Make A Move tab

version 1
version 1

Whole song

Interactive

40 views 1 this week
no commentswrite comment
1 2 3 4 5
3 more votes to show rating
add to favorites
×
Save as Personal and add changes to this tab that will be seen only by you. Learn more ›
×
You can save this tab as Personal to edit and correct it or add notes. All changes will be seen only by you. Learn more »
launch autoscroll
font size
0
reset
how to read this tab
guitar tuner
edit
Autoscroll
slow
fast
+/-
esc
set tempo
stop
MAKE A MOVE
As recorded by Lostprophets (From the 2004 Album START SOMETHING)
Tablature (Tab) for Guitar
Transcribed by: Pedro11Henrique
Email: hpedro767@yahoo.com

Gtr I (C G C F A D) - 'Strings'

Gtr II (C G C F A D) - 'Lee Gaze (Clean)'

Gtr III (C G C F A D) - 'Mike Lewis (Clean)'

Gtr IV (C G C F A D) - 'Lee Gaze (Dist.)'

Gtr V (C G C F A D) - 'Mike Lewis (Dist.)'

Gtr VI (C G C F A D) - 'Lee Gaze (solo)'


[Intro]

  Moderately Fast Rock Q=119
  N.C.
 4/4
  Gtr I
   W           W           +H      +E    Q.
|-----------|-17--------|-(17)----(17)-(17)---|
|-15--------|-----------|---------------------|
|-----------|-----------|---------------------|
|-----------|-----------|---------------------|
|--1--------|-----------|---------------------|
|-----------|--3--------|--(3)-----(3)---5----|


   W           W           W           +H      +E   Q.
|-----------|-----------|-----------|--------------------|
|-17--------|-15--------|-13--------|-(13)----(13)-10----|
|-----------|-----------|-----------|--------------------|
|-----------|-----------|-----------|--------------------|
|-----------|--1--------|-----------|--------------------|
|--0--------|-----------|--3--------|--(3)-----(3)--5----|


  Gtr I
    >
    W                                             +W
|----------------------------------------------|---------------------------------------|
|-(10)-----------------------------------------|-(10)----------------------------------|
|----------------------------------------------|---------------------------------------|
|----------------------------------------------|---------------------------------------|
|----------------------------------------------|---------------------------------------|
|---0------------------------------------------|--(0)----------------------------------|
|
| Gtr II
|   E    S   E   S   E   S   E   S   E     +E      E    S   E   S   E   S   E   S   Q
|----------------------------------------------|---------------------------------------|
|-----------13--------------13-----------------|-----------13--------------13----------|
|--14---------------14--------------14b15r(14)-|--14---------------14--------------14--|
|------(12)----(12)----(12)----(12)------------|------(12)----(12)----(12)----(12)-----|
|----------------------------------------------|---------------------------------------|
|----------------------------------------------|---------------------------------------|


     W                                            W                                    3x
||---------------------------------------------|---------------------------------------||
||o--------------------------------------------|--------------------------------------o||
||---------------------------------------------|---------------------------------------||
||---------------------------------------------|---------------------------------------||
||o--------------------------------------------|--------------------------------------o||
||---------------------------------------------|---------------------------------------||
|
|    E   S   E   S   E   S   E   S   E     +E     E   S   E   S   E   S   E   S   Q    3x
||---------------------------------------------|---------------------------------------||
||o---------13--------------13-----------------|---------13--------------13-----------o||
||--14--------------14--------------14b15r(14)-|-14--------------14--------------14----||
||-----(12)----(12)----(12)----(12)------------|----(12)----(12)----(12)----(12)-------||
||o--------------------------------------------|--------------------------------------o||
||---------------------------------------------|---------------------------------------||


 Main Riff
  D5                                                       Bb5
   W                                                        W
|--------------------------------------------------------|--------------------------------------------------|
|-17-----------------------------------------------------|-15-----------------------------------------------|
|--------------------------------------------------------|--------------------------------------------------|
|--------------------------------------------------------|--------------------------------------------------|
|--------------------------------------------------------|--1-----------------------------------------------|
|--0-----------------------------------------------------|--------------------------------------------------|
|
| Gtr IV
|  E     S   E     S   E     S   E     S   E       +E       E     S   E     S   E     S   E     S   Q
|--------------------------------------------------------|--------------------------------------------------|
|-----------13------------------13-----------------------|-----------13------------------13-----------------|
|-14------------------14------------------14b15r==(14)---|-14------------------14------------------14-------|
|------(12)------(12)------(12)------(12)----------------|------(12)------(12)------(12)------(12)----------|
|--------------------------------------------------------|--------------------------------------------------|
|--------------------------------------------------------|--------------------------------------------------|
|
| Gtr V
|  S S   S   S S   S   S S   S   S S   S   S    S   S  S    S S   S   S S   S   S S   S   S S   S   S S S S
|--------------------------------------------------------|--------------------------------------------------|
|--------------------------------------------------------|--------------------------------------------------|
|--------------------------------------------------------|--------------------------------------------------|
|--0-0---0---0-0---0---0-0---0---0-0---0---0----0---0--0-|--8-8---8---8-8---8---8-8---8---8-8---8---8-8-8-8-|
|--0-0---0---0-0---0---0-0---0---0-0---0---0----0---0--0-|--8-8---8---8-8---8---8-8---8---8-8---8---8-8-8-8-|
|--0-0---0---0-0---0---0-0---0---0-0---0---0----0---0--0-|--8-8---8---8-8---8---8-8---8---8-8---8---8-8-8-8-|


  F5                                                                                      G5
   W                                                         H                         +S   Q..
|-17-----------------------------------------------------|-(17)-----------------------(17)(17)---------------|
|--------------------------------------------------------|---------------------------------------------------|
|--------------------------------------------------------|---------------------------------------------------|
|--------------------------------------------------------|---------------------------------------------------|
|--------------------------------------------------------|---------------------------------------------------|
|--3-----------------------------------------------------|---3-------------------------(3)--5----------------|
|
|  E     S   E     S   E     S   E     S   E       +E        E      S   E     S   E     S   E       S   Q
|--------------------------------------------------------|---------------------------------------------------|
|-----------13------------------13-----------------------|-------------13------------------13----------------|
|-14------------------14------------------14b15r==(14)---|--14-------------------14--------------------14----|
|------(12)------(12)------(12)------(12)----------------|--------(12)------(12)------(12)--------(12)-------|
|--------------------------------------------------------|---------------------------------------------------|
|--------------------------------------------------------|---------------------------------------------------|
|
|  S S   S   S S   S   S S   S   S S   S   S    S   S  S     S  S   S   S S   S   S S   S   S   S   S   S S S
|--------------------------------------------------------|---------------------------------------------------|
|--------------------------------------------------------|---------------------------------------------------|
|--------------------------------------------------------|---------------------------------------------------|
|--3-3---3---3-3---3---3-3---3---3-3---3---3----3---3--3-|---3--3---3---3-3---3---3-3---3s==5---5---5---5-5-5|
|--3-3---3---3-3---3---3-3---3---3-3---3---3----3---3--3-|---3--3---3---3-3---3---3-3---3s==5---5---5---5-5-5|
|--3-3---3---3-3---3---3-3---3---3-3---3---3----3---3--3-|---3--3---3---3-3---3---3-3---3s==5---5---5---5-5-5|


  D5                                                       Bb5
   W                                                        W
|--------------------------------------------------------|--------------------------------------------------|
|-17-----------------------------------------------------|-15-----------------------------------------------|
|--------------------------------------------------------|--------------------------------------------------|
|--------------------------------------------------------|--------------------------------------------------|
|--------------------------------------------------------|--1-----------------------------------------------|
|--0-----------------------------------------------------|--------------------------------------------------|
|
| Gtr IV
|  E     S   E     S   E     S   E     S   E       +E       E     S   E     S   E     S   E     S   Q
|--------------------------------------------------------|--------------------------------------------------|
|-----------13------------------13-----------------------|-----------13------------------13-----------------|
|-14------------------14------------------14b15r==(14)---|-14------------------14------------------14-------|
|------(12)------(12)------(12)------(12)----------------|------(12)------(12)------(12)------(12)----------|
|--------------------------------------------------------|--------------------------------------------------|
|--------------------------------------------------------|--------------------------------------------------|
|
| Gtr V
|  S S   S   S S   S   S S   S   S S   S   S    S   S  S    S S   S   S S   S   S S   S   S S   S   S S S S
|--------------------------------------------------------|--------------------------------------------------|
|--------------------------------------------------------|--------------------------------------------------|
|--------------------------------------------------------|--------------------------------------------------|
|--0-0---0---0-0---0---0-0---0---0-0---0---0----0---0--0-|--8-8---8---8-8---8---8-8---8---8-8---8---8-8-8-8-|
|--0-0---0---0-0---0---0-0---0---0-0---0---0----0---0--0-|--8-8---8---8-8---8---8-8---8---8-8---8---8-8-8-8-|
|--0-0---0---0-0---0---0-0---0---0-0---0---0----0---0--0-|--8-8---8---8-8---8---8-8---8---8-8---8---8-8-8-8-|


  F5                                                                                      G5
   W                                                        +H                         +E     Q.
|--------------------------------------------------------|---------------------------------------------------|
|-13-----------------------------------------------------|-(13)-----------------------(13)---10--------------|
|--------------------------------------------------------|---------------------------------------------------|
|--------------------------------------------------------|---------------------------------------------------|
|--------------------------------------------------------|---------------------------------------------------|
|--3-----------------------------------------------------|--(3)------------------------(3)----5--------------|
|
|  E     S   E     S   E     S   E     S   E       +E        E      S   E     S   E     S  E       S   Q
|--------------------------------------------------------|---------------------------------------------------|
|-----------13------------------13-----------------------|-------------13-----------------13-----------------|
|-14------------------14------------------14b15r==(14)---|--14-------------------14-------------------14-----|
|------(12)------(12)------(12)------(12)----------------|--------(12)------(12)------(12)-------(12)--------|
|--------------------------------------------------------|---------------------------------------------------|
|--------------------------------------------------------|---------------------------------------------------|
|
|  S S   S   S S   S   S S   S   S S   S   S    S   S  S     S  S   S   S S   S   S S   S  S  S    S   S S S 
|--------------------------------------------------------|---------------------------------------------------|
|--------------------------------------------------------|---------------------------------------------------|
|--------------------------------------------------------|---------------------------------------------------|
|--3-3---3---3-3---3---3-3---3---3-3---3---3----3---3--3-|---3--3---3---3-3---3---3-3---3S=5--5----5---5-5-5-|
|--3-3---3---3-3---3---3-3---3---3-3---3---3----3---3--3-|---3--3---3---3-3---3---3-3---3S=5--5----5---5-5-5-|
|--3-3---3---3-3---3---3-3---3---3-3---3---3----3---3--3-|---3--3---3---3-3---3---3-3---3S=5--5----5---5-5-5-|


 [1st Verse]
  D5         Csus2/F      C/A          G5/C
  Gtr V
  >
  W          +W             W            W
|----------|------------|------------|--------|
|----------|------------|------------|--------|
|----------|------------|------------|--------|
|-0--------|-(0)--------|------------|--------|
|-0--------|-(0)--------|------------|--------|
|-0--------|-(0)--------|------------|--------|
|
| Gtrs II, III
| W           W             W            W
|----------|------------|------------|--------|
|----------|------------|------------|--------|
|----------|-^7---------|-^12--------|-^12----|
|----------|-^5---------|-^10--------|-^12----|
|----------|-^3---------|-^-7--------|-^10----|
|----------|-^3---------|-^-7--------|-^10----|


  D5          Csus2/F     C/A          G5/C           D5
  Gtrs II, III
   W           W            W            W            S S S S E Q  +Q.
|-----------|-----------|------------|------------||----------------------|
|-----------|-----------|------------|------------||o---------------------|
|-^7--------|-^7--------|-^12--------|-^12--------||--7-7-7-7---7--(7)----|
|-^7--------|-^5--------|-^10--------|-^12--------||--7-7-7-7---7--(7)----|
|-^5--------|-^3--------|-^-7--------|-^10--------||o-5-5-5-5---5--(5)----|
|-^0--------|-^3--------|-^-7--------|-^10--------||--0-0-0-0---0--(0)----|


  Csus2/F           C/A
  E. S E Q  +Q.      S  S  S  S E  Q   +Q.
|-----------------|--------------------------|
|-----------------|--------------------------|
|-7--7---7--(7)---|-12-12-12-12---12--(12)---|
|-5--5---5--(5)---|-10-10-10-10---10--(10)---|
|-3--3---3--(3)---|--7--7--7--7----7---(7)---|
|-3--3---3--(3)---|--7--7--7--7----7---(7)---|


  G5/C
                          Gtr II
   E.  S E  Q   +Q.        E   S   E   S   E   S   E   S   E     +E
|----------------------||--------------------------------------------|
|---------------------o||---------13--------------13-----------------|
|-12--12---12--(12)----||-14--------------14--------------14b15r(14)-|
|-12--12---12--(12)----||----(12)----(12)----(12)----(12)------------|
|-10--10---10--(10)---o||--------------------------------------------|
|-10--10---10--(10)----||--------------------------------------------|


[Chorus]

  D5                                 Bb5
  Gtr I
   W                                  W
|----------------------------------|----------------------------------|
|-17-------------------------------|-15-------------------------------|
|----------------------------------|----------------------------------|
|----------------------------------|----------------------------------|
|----------------------------------|--1-------------------------------|
|--0-------------------------------|----------------------------------|
|
| Gtrs IV, V
|  S S S S S S S S S S S S S S S S    S S S S S S S S S S S S S S S S
|----------------------------------|----------------------------------|
|----------------------------------|----------------------------------|
|----------------------------------|----------------------------------|
|--0-0-0-0-0-0-0-0-0-0-0-0-0-0-0-0-|--8-8-8-8-8-8-8-8-8-8-8-8-8-8-8-8-|
|--0-0-0-0-0-0-0-0-0-0-0-0-0-0-0-0-|--8-8-8-8-8-8-8-8-8-8-8-8-8-8-8-8-|
|--0-0-0-0-0-0-0-0-0-0-0-0-0-0-0-0-|--8-8-8-8-8-8-8-8-8-8-8-8-8-8-8-8-|


  F5                                                        G5
   W                                   H                 +S   Q..
|-17-------------------------------|-(17)---------------(17)(17)-----------------|
|----------------------------------|---------------------------------------------|
|----------------------------------|---------------------------------------------|
|----------------------------------|---------------------------------------------|
|----------------------------------|---------------------------------------------|
|--3-------------------------------|---3-----------------(3)--5------------------|
|
|  S S S S S S S S S S S S S S S S     S  S S S S S S S   S   S   S S S S S S
|----------------------------------|---------------------------------------------|
|----------------------------------|---------------------------------------------|
|----------------------------------|---------------------------------------------|
|--3-3-3-3-3-3-3-3-3-3-3-3-3-3-3-3-|---3--3-3-3-3-3-3-3---3s==5---5-5-5-5-5-5----|
|--3-3-3-3-3-3-3-3-3-3-3-3-3-3-3-3-|---3--3-3-3-3-3-3-3---3s==5---5-5-5-5-5-5----|
|--3-3-3-3-3-3-3-3-3-3-3-3-3-3-3-3-|---3--3-3-3-3-3-3-3---3s==5---5-5-5-5-5-5----|


  D5                                 Bb5
   W                                  W
|----------------------------------|----------------------------------|
|-17-------------------------------|-15-------------------------------|
|----------------------------------|----------------------------------|
|----------------------------------|----------------------------------|
|----------------------------------|--1-------------------------------|
|--0-------------------------------|----------------------------------|
|
|  S S S S S S S S S S S S S S S S    S S S S S S S S S S S S S S S S
|----------------------------------|----------------------------------|
|----------------------------------|----------------------------------|
|----------------------------------|----------------------------------|
|--0-0-0-0-0-0-0-0-0-0-0-0-0-0-0-0-|--8-8-8-8-8-8-8-8-8-8-8-8-8-8-8-8-|
|--0-0-0-0-0-0-0-0-0-0-0-0-0-0-0-0-|--8-8-8-8-8-8-8-8-8-8-8-8-8-8-8-8-|
|--0-0-0-0-0-0-0-0-0-0-0-0-0-0-0-0-|--8-8-8-8-8-8-8-8-8-8-8-8-8-8-8-8-|


  F5                                                        G5
   W                                  +H                 +E    Q.
|----------------------------------|-------------------------------------------|
|-13-------------------------------|-(13)---------------(13)--10---------------|
|----------------------------------|-------------------------------------------|
|----------------------------------|-------------------------------------------|
|----------------------------------|-------------------------------------------|
|--3-------------------------------|--(3)----------------(3)---5---------------|
|
|  S S S S S S S S S S S S S S S S     S  S S S S S S S   S S  S  S S S S S
|----------------------------------|-------------------------------------------|
|----------------------------------|-------------------------------------------|
|----------------------------------|-------------------------------------------|
|--3-3-3-3-3-3-3-3-3-3-3-3-3-3-3-3-|---3--3-3-3-3-3-3-3---3S5--5--5-5-5-5-5----|
|--3-3-3-3-3-3-3-3-3-3-3-3-3-3-3-3-|---3--3-3-3-3-3-3-3---3S5--5--5-5-5-5-5----|
|--3-3-3-3-3-3-3-3-3-3-3-3-3-3-3-3-|---3--3-3-3-3-3-3-3---3S5--5--5-5-5-5-5----|


   [2nd Verse]

    D5          Csus2/F     C/A          G5/C
    Gtrs II, III
     W           W            W            W
||------------|-----------|------------|---------||
||o-----------|-----------|------------|--------o||
||--^7--------|-^7--------|-^12--------|-^12-----||
||--^7--------|-^5--------|-^10--------|-^12-----||
||o-^5--------|-^3--------|-^-7--------|-^10----o||
||--^0--------|-^3--------|-^-7--------|-^10-----||


  D5                         Csus2/F
  Gtr I
   q        q    q      q     q     q    q      q
|--------------------------|-----------------------|
|-15-------15---15-----15--|-15----15---15-----15--|
|--------------------------|-----------------------|
|--------------------------|-----------------------|
|--------------------------|-----------------------|
|--------------------------|-----------------------|
|
| Gtrs II, III
|  S S S S  E Q    +Q.        E. S  E Q    +Q.
|--------------------------|-----------------------|
|--------------------------|-----------------------|
|--7-7-7-7----7----(7)-----|--7--7----7----(7)-----|
|--7-7-7-7----7----(7)-----|--5--5----5----(5)-----|
|--5-5-5-5----5----(5)-----|--3--3----3----(3)-----|
|--0-0-0-0----0----(0)-----|--3--3----3----(3)-----|


  C/A                             G5/C
   q           q     q       q     q      q     q       q
|-------------------------------|--------------------------|
|-15----------15----15------15--|-15-----15----15------15--|
|-------------------------------|--------------------------|
|-------------------------------|--------------------------|
|-------------------------------|--------------------------|
|-------------------------------|--------------------------|
|
|  S  S  S  S  E  Q     +Q.        E.  S  E  Q     +Q.
|-------------------------------|--------------------------|
|-------------------------------|--------------------------|
|-12-12-12-12----12----(12)-----|-12--12----12----(12)-----|
|-10-10-10-10----10----(10)-----|-12--12----12----(12)-----|
|--7--7--7--7-----7-----(7)-----|-10--10----10----(10)-----|
|--7--7--7--7-----7-----(7)-----|-10--10----10----(10)-----|


  D5                         Csus2/F                 C/A
   q        q    q      q     q     q    q      q     q           q     q       q
|-14-------14---14-----14--|-15----15---15-----15--|-17----------17----17------17--|
|--------------------------|-----------------------|-------------------------------|
|--------------------------|-----------------------|-------------------------------|
|--------------------------|-----------------------|-------------------------------|
|--------------------------|-----------------------|-------------------------------|
|--------------------------|-----------------------|-------------------------------|
|
|  S S S S  E Q    +Q.        E. S  E Q    +Q.        S  S  S  S  E  Q     +Q.
|--------------------------|-----------------------|-------------------------------|
|--------------------------|-----------------------|-------------------------------|
|--7-7-7-7----7----(7)-----|--7--7----7----(7)-----|-12-12-12-12----12----(12)-----|
|--7-7-7-7----7----(7)-----|--5--5----5----(5)-----|-10-10-10-10----10----(10)-----|
|--5-5-5-5----5----(5)-----|--3--3----3----(3)-----|--7--7--7--7-----7-----(7)-----|
|--0-0-0-0----0----(0)-----|--3--3----3----(3)-----|--7--7--7--7-----7-----(7)-----|


  G5/C                       N.C.
   q      q     q       q     W
|-20-----20----22------22--|--------------------------------------------|
|--------------------------|--------------------------------------------|
|--------------------------|--------------------------------------------|
|--------------------------|--------------------------------------------|
|--------------------------|--------------------------------------------|
|--------------------------|--------------------------------------------|
|
|                            Gtr II
|  E.  S  E  Q     +Q.        E   S   E   S   E   S   E   S   E     +E
|--------------------------|--------------------------------------------|
|--------------------------|---------13--------------13-----------------|
|-12--12----12----(12)-----|-14--------------14--------------14b15r(14)-|
|-12--12----12----(12)-----|----(12)----(12)----(12)----(12)------------|
|-10--10----10----(10)-----|--------------------------------------------|
|-10--10----10----(10)-----|--------------------------------------------|


[Chorus]

  $
  D5                                 Bb5
  Gtr I
   W                                  W
|----------------------------------|----------------------------------|
|-17-------------------------------|-15-------------------------------|
|----------------------------------|----------------------------------|
|----------------------------------|----------------------------------|
|----------------------------------|--1-------------------------------|
|--0-------------------------------|----------------------------------|
|
| Gtrs IV, V
|  S S S S S S S S S S S S S S S S    S S S S S S S S S S S S S S S S
|----------------------------------|----------------------------------|
|----------------------------------|----------------------------------|
|----------------------------------|----------------------------------|
|--0-0-0-0-0-0-0-0-0-0-0-0-0-0-0-0-|--8-8-8-8-8-8-8-8-8-8-8-8-8-8-8-8-|
|--0-0-0-0-0-0-0-0-0-0-0-0-0-0-0-0-|--8-8-8-8-8-8-8-8-8-8-8-8-8-8-8-8-|
|--0-0-0-0-0-0-0-0-0-0-0-0-0-0-0-0-|--8-8-8-8-8-8-8-8-8-8-8-8-8-8-8-8-|


  F5                                                        G5
   W                                   H                 +S   Q..
|-17-------------------------------|-(17)---------------(17)(17)-----------------|
|----------------------------------|---------------------------------------------|
|----------------------------------|---------------------------------------------|
|----------------------------------|---------------------------------------------|
|----------------------------------|---------------------------------------------|
|--3-------------------------------|---3-----------------(3)--5------------------|
|
|  S S S S S S S S S S S S S S S S     S  S S S S S S S   S   S   S S S S S S
|----------------------------------|---------------------------------------------|
|----------------------------------|---------------------------------------------|
|----------------------------------|---------------------------------------------|
|--3-3-3-3-3-3-3-3-3-3-3-3-3-3-3-3-|---3--3-3-3-3-3-3-3---3s==5---5-5-5-5-5-5----|
|--3-3-3-3-3-3-3-3-3-3-3-3-3-3-3-3-|---3--3-3-3-3-3-3-3---3s==5---5-5-5-5-5-5----|
|--3-3-3-3-3-3-3-3-3-3-3-3-3-3-3-3-|---3--3-3-3-3-3-3-3---3s==5---5-5-5-5-5-5----|


  D5                                 Bb5
   W                                  W
|----------------------------------|----------------------------------|
|-17-------------------------------|-15-------------------------------|
|----------------------------------|----------------------------------|
|----------------------------------|----------------------------------|
|----------------------------------|--1-------------------------------|
|--0-------------------------------|----------------------------------|
|
|  S S S S S S S S S S S S S S S S    S S S S S S S S S S S S S S S S
|----------------------------------|----------------------------------|
|----------------------------------|----------------------------------|
|----------------------------------|----------------------------------|
|--0-0-0-0-0-0-0-0-0-0-0-0-0-0-0-0-|--8-8-8-8-8-8-8-8-8-8-8-8-8-8-8-8-|
|--0-0-0-0-0-0-0-0-0-0-0-0-0-0-0-0-|--8-8-8-8-8-8-8-8-8-8-8-8-8-8-8-8-|
|--0-0-0-0-0-0-0-0-0-0-0-0-0-0-0-0-|--8-8-8-8-8-8-8-8-8-8-8-8-8-8-8-8-|


  F5                                                        G5
   W                                  +H                 +E    Q.
|----------------------------------|-------------------------------------------|
|-13-------------------------------|-(13)---------------(13)--10---------------|
|----------------------------------|-------------------------------------------|
|----------------------------------|-------------------------------------------|
|----------------------------------|-------------------------------------------|
|--3-------------------------------|--(3)----------------(3)---5---------------|
|
|  S S S S S S S S S S S S S S S S     S  S S S S S S S   S S  S  S S S S S
|----------------------------------|-------------------------------------------|
|----------------------------------|-------------------------------------------|
|----------------------------------|-------------------------------------------|
|--3-3-3-3-3-3-3-3-3-3-3-3-3-3-3-3-|---3--3-3-3-3-3-3-3---3S5--5--5-5-5-5-5----|
|--3-3-3-3-3-3-3-3-3-3-3-3-3-3-3-3-|---3--3-3-3-3-3-3-3---3S5--5--5-5-5-5-5----|
|--3-3-3-3-3-3-3-3-3-3-3-3-3-3-3-3-|---3--3-3-3-3-3-3-3---3S5--5--5-5-5-5-5----|


  D5                                                       Bb5
   W                                                        W
|--------------------------------------------------------|--------------------------------------------------|
|-17-----------------------------------------------------|-15-----------------------------------------------|
|--------------------------------------------------------|--------------------------------------------------|
|--------------------------------------------------------|--------------------------------------------------|
|--------------------------------------------------------|--1-----------------------------------------------|
|--0-----------------------------------------------------|--------------------------------------------------|
|
| Gtr IV
|  E     S   E     S   E     S   E     S   E       +E       E     S   E     S   E     S   E     S   Q
|--------------------------------------------------------|--------------------------------------------------|
|-----------13------------------13-----------------------|-----------13------------------13-----------------|
|-14------------------14------------------14b15r==(14)---|-14------------------14------------------14-------|
|------(12)------(12)------(12)------(12)----------------|------(12)------(12)------(12)------(12)----------|
|--------------------------------------------------------|--------------------------------------------------|
|--------------------------------------------------------|--------------------------------------------------|
|
| Gtr V
|  S S   S   S S   S   S S   S   S S   S   S    S   S  S    S S   S   S S   S   S S   S   S S   S   S S S S
|--------------------------------------------------------|--------------------------------------------------|
|--------------------------------------------------------|--------------------------------------------------|
|--------------------------------------------------------|--------------------------------------------------|
|--0-0---0---0-0---0---0-0---0---0-0---0---0----0---0--0-|--8-8---8---8-8---8---8-8---8---8-8---8---8-8-8-8-|
|--0-0---0---0-0---0---0-0---0---0-0---0---0----0---0--0-|--8-8---8---8-8---8---8-8---8---8-8---8---8-8-8-8-|
|--0-0---0---0-0---0---0-0---0---0-0---0---0----0---0--0-|--8-8---8---8-8---8---8-8---8---8-8---8---8-8-8-8-|


  F5                                                                                      G5
   W                                                         H                         +S   Q..
|-17-----------------------------------------------------|-(17)-----------------------(17)(17)---------------|
|--------------------------------------------------------|---------------------------------------------------|
|--------------------------------------------------------|---------------------------------------------------|
|--------------------------------------------------------|---------------------------------------------------|
|--------------------------------------------------------|---------------------------------------------------|
|--3-----------------------------------------------------|---3-------------------------(3)--5----------------|
|
|  E     S   E     S   E     S   E     S   E       +E        E      S   E     S   E     S   E       S   Q
|--------------------------------------------------------|---------------------------------------------------|
|-----------13------------------13-----------------------|-------------13------------------13----------------|
|-14------------------14------------------14b15r==(14)---|--14-------------------14--------------------14----|
|------(12)------(12)------(12)------(12)----------------|--------(12)------(12)------(12)--------(12)-------|
|--------------------------------------------------------|---------------------------------------------------|
|--------------------------------------------------------|---------------------------------------------------|
|
|  S S   S   S S   S   S S   S   S S   S   S    S   S  S     S  S   S   S S   S   S S   S   S   S   S   S S S
|--------------------------------------------------------|---------------------------------------------------|
|--------------------------------------------------------|---------------------------------------------------|
|--------------------------------------------------------|---------------------------------------------------|
|--3-3---3---3-3---3---3-3---3---3-3---3---3----3---3--3-|---3--3---3---3-3---3---3-3---3s==5---5---5---5-5-5|
|--3-3---3---3-3---3---3-3---3---3-3---3---3----3---3--3-|---3--3---3---3-3---3---3-3---3s==5---5---5---5-5-5|
|--3-3---3---3-3---3---3-3---3---3-3---3---3----3---3--3-|---3--3---3---3-3---3---3-3---3s==5---5---5---5-5-5|


  D5                                                       Bb5
   W                                                        W
|--------------------------------------------------------|--------------------------------------------------|
|-17-----------------------------------------------------|-15-----------------------------------------------|
|--------------------------------------------------------|--------------------------------------------------|
|--------------------------------------------------------|--------------------------------------------------|
|--------------------------------------------------------|--1-----------------------------------------------|
|--0-----------------------------------------------------|--------------------------------------------------|
|
| Gtr IV
|  E     S   E     S   E     S   E     S   E       +E       E     S   E     S   E     S   E     S   Q
|--------------------------------------------------------|--------------------------------------------------|
|-----------13------------------13-----------------------|-----------13------------------13-----------------|
|-14------------------14------------------14b15r==(14)---|-14------------------14------------------14-------|
|------(12)------(12)------(12)------(12)----------------|------(12)------(12)------(12)------(12)----------|
|--------------------------------------------------------|--------------------------------------------------|
|--------------------------------------------------------|--------------------------------------------------|
|
| Gtr V
|  S S   S   S S   S   S S   S   S S   S   S    S   S  S    S S   S   S S   S   S S   S   S S   S   S S S S
|--------------------------------------------------------|--------------------------------------------------|
|--------------------------------------------------------|--------------------------------------------------|
|--------------------------------------------------------|--------------------------------------------------|
|--0-0---0---0-0---0---0-0---0---0-0---0---0----0---0--0-|--8-8---8---8-8---8---8-8---8---8-8---8---8-8-8-8-|
|--0-0---0---0-0---0---0-0---0---0-0---0---0----0---0--0-|--8-8---8---8-8---8---8-8---8---8-8---8---8-8-8-8-|
|--0-0---0---0-0---0---0-0---0---0-0---0---0----0---0--0-|--8-8---8---8-8---8---8-8---8---8-8---8---8-8-8-8-|


                                                                                                      To Coda
  F5                                                                                      G5
   W                                                        +H                         +E     Q.
|--------------------------------------------------------|---------------------------------------------------|
|-13-----------------------------------------------------|-(13)-----------------------(13)---10--------------|
|--------------------------------------------------------|---------------------------------------------------|
|--------------------------------------------------------|---------------------------------------------------|
|--------------------------------------------------------|---------------------------------------------------|
|--3-----------------------------------------------------|--(3)------------------------(3)----5--------------|
|
|  E     S   E     S   E     S   E     S   E       +E        E      S   E     S   E     S  E       S   Q
|--------------------------------------------------------|---------------------------------------------------|
|-----------13------------------13-----------------------|-------------13-----------------13-----------------|
|-14------------------14------------------14b15r==(14)---|--14-------------------14-------------------14-----|
|------(12)------(12)------(12)------(12)----------------|--------(12)------(12)------(12)-------(12)--------|
|--------------------------------------------------------|---------------------------------------------------|
|--------------------------------------------------------|---------------------------------------------------|
|
|  S S   S   S S   S   S S   S   S S   S   S    S   S  S     S  S   S   S S   S   S S   S  S  S    S   S S S 
|--------------------------------------------------------|---------------------------------------------------|
|--------------------------------------------------------|---------------------------------------------------|
|--------------------------------------------------------|---------------------------------------------------|
|--3-3---3---3-3---3---3-3---3---3-3---3---3----3---3--3-|---3--3---3---3-3---3---3-3---3S=5--5----5---5-5-5-|
|--3-3---3---3-3---3---3-3---3---3-3---3---3----3---3--3-|---3--3---3---3-3---3---3-3---3S=5--5----5---5-5-5-|
|--3-3---3---3-3---3---3-3---3---3-3---3---3----3---3--3-|---3--3---3---3-3---3---3-3---3S=5--5----5---5-5-5-|


[Bridge]

  D5
  Gtrs IV, V
  PM|   PM|           PM|   PM|
  S S S S S H    E.   S S S S S H    E.
|-------------------|-------------------|
|-------------------|-------------------|
|-------------------|-------------------|
|-0-0---0-0---------|-0-0---0-0---------|
|-0-0---0-0---------|-0-0---0-0---------|
|-0-0---0-0---------|-0-0---0-0---------|


  PM|   PM|           PM|   PM|
  S S S S S H    E.   S S S S S H    E.
|-------------------|--------------------|
|-------------------|--------------------|
|-------------------|--------------------|
|-0-0---0-0---------|-0-0---0-0----------|
|-0-0---0-0---------|-0-0---0-0----------|
|-0-0---0-0---------|-0-0---0-0----------|


              Bb5D5Bb5   D5          Bb5D5BbC5
  S S S S S S Q  E E E   S S S S S S Q  E E  E
|----------------------|-----------------------|
|----------------------|-----------------------|
|----------------------|-----------------------|
|-0-0---0-0---8--0-8-8-|-0-0---0-0---8--0-8-10-|
|-0-0---0-0---8--0-8-8-|-0-0---0-0---8--0-8-10-|
|-0-0---0-0---8--0-8-8-|-0-0---0-0---8--0-8-10-|


  D5          Bb5D5Bb5   D5          Bb5D5
  S S S S S S Q  E E E   S S S S S S Q  E Q
|----------------------|---------------------|
|----------------------|---------------------|
|----------------------|---------------------|
|-0-0---0-0---8--0-8-8-|-0-0---0-0---8--0----|
|-0-0---0-0---8--0-8-8-|-0-0---0-0---8--0----|
|-0-0---0-0---8--0-8-8-|-0-0---0-0---8--0----|


  D5              Bb5D5Bb5   D5                 Bb5D5BbC5
  Gtr VI
   TP                          TP
   W                          +W
|--------------------------|------------------------------|
|-14b16--------------------|-(14)pb15---------------------|
|--------------------------|------------------------------|
|--------------------------|------------------------------|
|--------------------------|------------------------------|
|--------------------------|------------------------------|
|
| Gtrs IV, V
|  S    S S S S S Q  E E E     S      S S S S S Q  E E  E
|--------------------------|------------------------------|
|--------------------------|------------------------------|
|--------------------------|------------------------------|
|--0----0---0-0---8--0-8-8-|---0------0---0-0---8--0-8-10-|
|--0----0---0-0---8--0-8-8-|---0------0---0-0---8--0-8-10-|
|--0----0---0-0---8--0-8-8-|---0------0---0-0---8--0-8-10-|


  D5               Bb5D5Bb5   D5                 Bb5D5BbC5
    TP                          TP
    W                          +W
|---------------------------|------------------------------|
|-/18b20--------------------|-(18)pb19---------------------|
|---------------------------|------------------------------|
|---------------------------|------------------------------|
|---------------------------|------------------------------|
|---------------------------|------------------------------|
|
|   S    S S S S S Q  E E E     S      S S S S S Q  E E  E
|---------------------------|------------------------------|
|---------------------------|------------------------------|
|---------------------------|------------------------------|
|---0----0---0-0---8--0-8-8-|---0------0---0-0---8--0-8-10-|
|---0----0---0-0---8--0-8-8-|---0------0---0-0---8--0-8-10-|
|---0----0---0-0---8--0-8-8-|---0------0---0-0---8--0-8-10-|


  D5    C5    D5 Bb5D5                Csus2/F
                                      Gtr II
   +Q       H       Q     W            W
|----------------------|------------|------------|
|-(18)\----------------|------------|------------|
|----------------------|------------|-^7---------|
|----------------------|------------|-^5---------|
|----------------------|------------|-^3---------|
|----------------------|------------|-^3---------|
|
|                                      >
|   E.   E.   E. E. Q    +W           +W
|----------------------|------------|------------|
|----------------------|------------|------------|
|----------------------|------------|------------|
|---0---10----0--8--0--|-(0)--------|-(0)--------|
|---0---10----0--8--0--|-(0)--------|-(0)--------|
|---0---10----0--8--0--|-(0)--------|-(0)--------|


                      D.S. al Coda
  C/A           G5/C
    W             W           +W
|-------------|------------|----------||
|-------------|------------|----------||
|-^12---------|-^12--------|-(12)-----||
|-^10---------|-^12--------|-(12)-----||
|-^-7---------|-^10--------|-(10)-----||
|-^-7---------|-^10--------|-(10)-----||
|
|  +W             W            W
|-------------|------------|----------||
|-------------|------------|----------||
|-------------|------------|----------||
|--(0)--------|------------|----------||
|--(0)--------|------------|----------||
|--(0)--------|------------|----------||


[Outro]

  &
  Bbmaj7                    Fmaj7
  Gtrs II, III
    W            W           W          +W
|-^10--------|-^10--------|-^5--------|-(5)----*|
|-^10--------|-^10--------|-^5--------|-(5)----*|
|-^10--------|-^10--------|-^5--------|-(5)----*|
|-^-8--------|-^-8--------|-^3--------|-(3)----*|
|-^-8--------|-^-8--------|-^3--------|-(3)----*|
|-^-8--------|-^-8--------|-^3--------|-(3)----*|



************************************

| (n)  Ghost note
| b    Bend
| /    Slide up

************************************

            
            
Suggest correction
Creating personal tab
Creating personal tab
You can edit any tab online and save it as your Personal.

You can edit, replace or remove any tab part or add personal notes – all changes will be seen only by you.

Personal tabs can be accessed anytime from any device, even offline.
Learn more »
Give kudos to tab author, rate the tab!
1 2 3 4 5
comments
print report bad tab
guest
You may want to rate the tab now too:
select rating
Wanna post a correction for this tab? Suggest correction