Oops, an error
Loading. Please wait.

New Transmission tab

version 2
version 2

Whole song

Interactive

2,037 views 3 this week
3 commentsread comments
1 2 3 4 5
x 3
add to favorites
×
Save as Personal and add changes to this tab that will be seen only by you. Learn more ›
×
You can save this tab as Personal to edit and correct it or add notes. All changes will be seen only by you. Learn more »
launch autoscroll
font size
0
reset
how to read this tab
guitar tuner
edit
Autoscroll
slow
fast
+/-
esc
set tempo
stop
Artist - Lostprophets
Song - The New Transmission
Tabber - Justin Platt
Tuning - D# G# C# F# A# D# (Down-tuned a semi-tone)

Intro
d#|----------------------|
A#|----------------------|
F#|------11-11-----------|
C#|-4-4--11-11--9-9--2-2-| x2(treble), x2(rythym)
G#|-4-4--x--x---9-9--2-2-|
D#|-2-2--9--9---7-7--0-0-|

1st and 2nd line of verse:
|-----|
|-----|
|-----|
|-4---| (let ring)
|-4---|
|-2---|

Rest of verse:
|-------------------------------|
|-------------------------------|
|-------------------------------|
|-4-4-4--9-9-9--2-2-2-2-2-2-2-2-| x4
|-4-4-4--9-9-9--2-2-2-2-2-2-2-2-|
|-2-2-2--7-7-7--0-0-0-0-0-0-0-0-|

Intro x2

Pre-chorus:
1st Guitar:
|---------------------------------------|
|---------------------------------------|
|---------------------------------------| 
|-4-4-4-4-4--7-7-7-7-7--2-2-2-2-2-2-2-2-|
|-4-4-4-4-4--7-7-7-7-7--2-2-2-2-2-2-2-2-|
|-2-2-2-2-2--5-5-5-5-5--0-0-0-0-0-0-0-0-|

|---------------------------------------|
|---------------------------------------|
|-------------------------------9-9-9-9-| 
|-4-4-4-4-4--7-7-7-7-7--2-2-2-2-9-9-9-9-|
|-4-4-4-4-4--7-7-7-7-7--2-2-2-2-7-7-7-7-|
|-2-2-2-2-2--5-5-5-5-5--0-0-0-0---------|

2nd Guitar:
|-----------------------------------|
|-----------------------------------|
|---9--------9--------9-------------|
|-7---7-9--7---7-9--7---7-9--7----7-|
|------------------------------99---|
|-----------------------------------|




|-------------------------------------|
|-------------------------------------|
|---9--------9--------9---------------|
|-7---7-9--7---7-9--7---7-9--7-99-11v-| v: vibrato
|-------------------------------------|
|-------------------------------------|

Chorus 1:
|-------------------------------------------------|
|-------------------------------------------------|
|-11-11-11-11-11--9-9-9-9-9--6-6-6-6-6--8-8-8-8-8-|
|-11-11-11-11-11--9-9-9-9-9--7-7-7-7-7--9-9-9-9-9-| x2
|-9--9--9--9--9---7-7-7-7-7--7-7-7-7-7--9-9-9-9-9-|
|-9--9--9--9--9---7-7-7-7-7--5-5-5-5-5--7-7-7-7-7-|

Intro x2

Verse:
|------------------------|
|------------------------|
|------------------------|
|-44-22----44-44-22----4-| x2
|-------22-44------2/4-4-|
|----------22----------2-|

|-------------------------------|
|-------------------------------|
|-------------------------------|
|-4-4-4--9-9-9--2-2-2-2-2-2-2-2-| x4
|-4-4-4--9-9-9--2-2-2-2-2-2-2-2-|
|-2-2-2--7-7-7--0-0-0-0-0-0-0-0-|

Pre-chorus x1

Chorus 2:
|-------------------------------------------------|
|-------------------------------------------------|
|-11-11-11-11-11--9-9-9-9-9--6-6-6-6-6--8-8-8-8-8-|
|-11-11-11-11-11--9-9-9-9-9--7-7-7-7-7--9-9-9-9-9-| x2
|-9--9--9--9--9---7-7-7-7-7--7-7-7-7-7--9-9-9-9-9-|
|-9--9--9--9--9---7-7-7-7-7--5-5-5-5-5--7-7-7-7-7-|

|----------------------|
|----------------------|
|-6-6-6-6-6--8-8-8-8-8-|
|-7-7-7-7-7--9-9-9-9-9-|
|-7-7-7-7-7--9-9-9-9-9-|
|-5-5-5-5-5--7-7-7-7-7-|

Bridge:
|-----|
|-----|
|-----|
|-4---| (let ring)
|-4---|
|-2---|


Guitar 1:
|----------------------------------------|
|----------------------------------------|
|-7------7--7------7---------7---------7-|
|-7---77-7--7---77-7--4---77-7--4---77-7-| x2
|-5---77-5--5---77-5--4---77-5--4---77-5-|
|-----55--------55----2---55----2---55---|

|----------------------|
|----------------------|
|----------------------|
|-12-12-12-12-12-12-12-|
|-12-12-12-12-12-12-12-|
|-10-10-10-10-10-10-10-|

Guitar 2:
|-----------------|
|-5-3-2-----2-3-2-|
|------2-1-2------|
|-----------------| x2
|-----------------|
|-----------------|

|-----14----14-|
|---14----14---|
|-11----11-----| x Many (fast)
|--------------|
|--------------|
|--------------|

Intro x4

Pre-chorus x2

Chorus 3
|-------------------------------------------------|
|-------------------------------------------------|
|-11-11-11-11-11--9-9-9-9-9--6-6-6-6-6--8-8-8-8-8-|
|-11-11-11-11-11--9-9-9-9-9--7-7-7-7-7--9-9-9-9-9-| x2
|-9--9--9--9--9---7-7-7-7-7--7-7-7-7-7--9-9-9-9-9-|
|-9--9--9--9--9---7-7-7-7-7--5-5-5-5-5--7-7-7-7-7-|

|----------------------|
|----------------------|
|-6-6-6-6-6--8-8-8-8-8-|
|-7-7-7-7-7--9-9-9-9-9-| (x2 repeat all)
|-7-7-7-7-7--9-9-9-9-9-|
|-5-5-5-5-5--7-7-7-7-7-|

Outro:
Intro                        Finish:
|----------------------|     |---------|
|----------------------|     |---------|
|------11-11-----------|     |---------|
|-4-4--11-11--9-9--2-2-| x2  |-4-4-4-p-|  (p: palm mute)
|-4-4--x--x---9-9--2-2-|     |-4-4-4-p-|
|-2-2--9--9---7-7--0-0-|     |-2-2-2-p-|

Suggest correction
Creating personal tab
Creating personal tab
You can edit any tab online and save it as your Personal.

You can edit, replace or remove any tab part or add personal notes – all changes will be seen only by you.

Personal tabs can be accessed anytime from any device, even offline.
Learn more »
Give kudos to tab author, rate the tab!
1 2 3 4 5
comments
print report bad tab
3 comments total.
0 reply
jaymaniac 30 Aug 09, 2006 02:03 AM

sweet tab dude!!

-1 reply
Dan_sunburst 10 Aug 11, 2006 09:39 AM

The tuning isn't low enough, listen to the bridge dude.

0 reply
Lostprophets6 10 Sep 26, 2006 05:53 AM

only really decent tab of this song.
about time.

guest
Wanna post a correction for this tab? Suggest correction