Oops, an error
Loading. Please wait.

Rooftops tab

version 10
109 views 1 this week
1 commentread comment
1 2 3 4 5
3 more votes to show rating
add to favorites
×
Save as Personal and add changes to this tab that will be seen only by you. Learn more ›
×
You can save this tab as Personal to edit and correct it or add notes. All changes will be seen only by you. Learn more »
launch autoscroll
font size
0
reset
how to read this tab
guitar tuner
backing track
0:00
0:00
edit
Autoscroll
slow
fast
+/-
esc
set tempo
stop
-------------------------------------------------------------------------------
                Rooftops (A Liberation Broadcast) - lostprophets
-------------------------------------------------------------------------------
Tabbed by:okman
Artist:lostprophets
Album:Liberation Transmission
Song:Rooftops (A Liberation Broadcast)
Tuning:Drop C (D A F C G C)

 Intro
 00:00-00:02 Lee Gaze (Lead Guitar)
D|---------------------------------------------------------------------------|
A|--10-10-10-10-10-10-10-10-10-10-10-10-10-10-10-----------------------------|
F|--x--x--x--x--x--x--x--x--x--x--x--x--x--x--x------------------------------|
C|--7--7--7--7--7--7--7--7--7--7--7--7--7--7--7------------------------------|x1
G|---------------------------------------------------------------------------|
C|---------------------------------------------------------------------------|

 00:02-00:05 Lee Gaze (Lead Guitar)
D|---------------------------------------------------------------------------|
A|--10-10-10-10-10-10-10-10-10-10-10-10-10-10-10-----------------------------|
F|--x--x--x--x--x--x--x--x--x--x--x--x--x--x--x------------------------------|
C|--7--7--7--7--7--7--7--7--7--7--7--7--7--7--7------------------------------|x1
G|--9--9--9--9--9--9--9--9--9--9--9--9--9--9--9------------------------------|
C|---------------------------------------------------------------------------|

 00:05-00:07 Lee Gaze (Lead Guitar)
D|---------------------------------------------------------------------------|
A|--10-10-10-10-10-10-10-10-10-10-10-10-10-10-10-----------------------------|
F|--x--x--x--x--x--x--x--x--x--x--x--x--x--x--x------------------------------|
C|--9--9--9--9--9--9--9--9--9--9--9--9--9--9--9------------------------------|x1
G|--7--7--7--7--7--7--7--7--7--7--7--7--7--7--7------------------------------|
C|---------------------------------------------------------------------------|

 00:07-00:10 Lee Gaze (Lead Guitar)
D|---------------------------------------------------------------------------|
A|--10-10-10-10-10-10-10-10-10-10-10-10-10-10-10-----------------------------|
F|--9--9--9--9--9--9--9--9--9--9--9--9--9--9--9------------------------------|
C|--x--x--x--x--x--x--x--x--x--x--x--x--x--x--x------------------------------|x1
G|--7--7--7--7--7--7--7--7--7--7--7--7--7--7--7------------------------------|
C|---------------------------------------------------------------------------|

 00:10-00:13 Lee Gaze (Lead Guitar)
D|---------------------------------------------------------------------------|
A|--10-10-10-10-10-10-10-10-10-10-10-10-10-10-10-----------------------------|
F|--9--9--9--9--9--9--9--9--9--9--9--9--9--9--9------------------------------|
C|--7--7--7--7--7--7--7--7--7--7--7--7--7--7--7---(16 times)-----------------|x1
G|--9--9--9--9--9--9--9--9--9--9--9--9--9--9--9------------------------------|
C|---------------------------------------------------------------------------|

 00:13-00:15 Lee Gaze (Lead Guitar)
D|---------------------------------------------------------------------------|
A|--9-9-9-9-9-9-9-9-9-9-9-9-9-9-9--------------------------------------------|
F|--9-9-9-9-9-9-9-9-9-9-9-9-9-9-9----(16 times)------------------------------|
C|--7-7-7-7-7-7-7-7-7-7-7-7-7-7-7--------------------------------------------|x1
G|--9-9-9-9-9-9-9-9-9-9-9-9-9-9-9--------------------------------------------|
C|---------------------------------------------------------------------------|

 00:15-00:18 Lee Gaze (Lead Guitar)
D|---------------------------------------------------------------------------|
A|--10-10-10-10-10-10-10-10-10-10-10-10-10-10-10-----------------------------|
F|--x--x--x--x--x--x--x--x--x--x--x--x--x--x--x------------------------------|
C|--7--7--7--7--7--7--7--7--7--7--7--7--7--7--7------------------------------|x1
G|---------------------------------------------------------------------------|
C|---------------------------------------------------------------------------|

 00:18-00:21 Lee Gaze (Lead Guitar)
D|---------------------------------------------------------------------------|
A|--10-10-10-10-10-10-10-10-10-10-10-10-10-10-10-----------------------------|
F|--x--x--x--x--x--x--x--x--x--x--x--x--x--x--x------------------------------|
C|--9--9--9--9--9--9--9--9--9--9--9--9--9--9--9------------------------------|x1
G|--7--7--7--7--7--7--7--7--7--7--7--7--7--7--7------------------------------|
C|---------------------------------------------------------------------------|

 00:21-00:24 Lee Gaze (Lead Guitar)
D|---------------------------------------------------------------------------|
A|--10-10-10-10-10-10-10-10-10-10-10-10-10-10-10-----------------------------|
F|--9--9--9--9--9--9--9--9--9--9--9--9--9--9--9------------------------------|
C|--7--7--7--7--7--7--7--7--7--7--7--7--7--7--7---(16 times)-----------------|x1
G|--9--9--9--9--9--9--9--9--9--9--9--9--9--9--9------------------------------|
C|---------------------------------------------------------------------------|
 00:24-00:27 Lee Gaze (Lead Guitar)
D|---------------------------------------------------------------------------|
A|--9-9-9-9-9-9-9-9-9-9-9-9-9-9-9--------------------------------------------|
F|--9-9-9-9-9-9-9-9-9-9-9-9-9-9-9----(16 times)------------------------------|
C|--7-7-7-7-7-7-7-7-7-7-7-7-7-7-7--------------------------------------------|x1
G|--9-9-9-9-9-9-9-9-9-9-9-9-9-9-9--------------------------------------------|
C|---------------------------------------------------------------------------|

 00:27-00:29 Lee Gaze (Lead Guitar)
D|---------------------------------------------------------------------------|
A|--10-10-10-10-10-10-10-10-10-10-10-10-10-10-10-----------------------------|
F|--x--x--x--x--x--x--x--x--x--x--x--x--x--x--x------------------------------|
C|--7--7--7--7--7--7--7--7--7--7--7--7--7--7--7------------------------------|x1
G|---------------------------------------------------------------------------|
C|---------------------------------------------------------------------------|

 00:29-00:32 Lee Gaze (Lead Guitar)
D|---------------------------------------------------------------------------|
A|--10-10-10-10-10-10-10-10-10-10-10-10-10-10-10-----------------------------|
F|--x--x--x--x--x--x--x--x--x--x--x--x--x--x--x------------------------------|
C|--9--9--9--9--9--9--9--9--9--9--9--9--9--9--9------------------------------|x1
G|--7--7--7--7--7--7--7--7--7--7--7--7--7--7--7------------------------------|
C|---------------------------------------------------------------------------|

 00:32-00:35 Lee Gaze (Lead Guitar)
D|---------------------------------------------------------------------------|
A|--10-10-10-10-10-10-10-10-10-10-10-10-10-10-10-----------------------------|
F|--9--9--9--9--9--9--9--9--9--9--9--9--9--9--9------------------------------|
C|--7--7--7--7--7--7--7--7--7--7--7--7--7--7--7---(16 times)-----------------|x1
G|--9--9--9--9--9--9--9--9--9--9--9--9--9--9--9------------------------------|
C|---------------------------------------------------------------------------|

 00:35-00:37 Lee Gaze (Lead Guitar)
D|---------------------------------------------------------------------------|
A|--9-9-9-9-9-9-9-9-9-9-9-9-9-9-9--------------------------------------------|
F|--9-9-9-9-9-9-9-9-9-9-9-9-9-9-9----(16 times)------------------------------|
C|--7-7-7-7-7-7-7-7-7-7-7-7-7-7-7--------------------------------------------|x1
G|--9-9-9-9-9-9-9-9-9-9-9-9-9-9-9--------------------------------------------|
C|---------------------------------------------------------------------------|

 00:37-00:40 Lee Gaze (Lead Guitar)
D|---------------------------------------------------------------------------|
A|--10-10-10-10-10-10-10-10-10-10-10-10-10-10-10-----------------------------|
F|--x--x--x--x--x--x--x--x--x--x--x--x--x--x--x------------------------------|
C|--7--7--7--7--7--7--7--7--7--7--7--7--7--7--7------------------------------|x1
G|---------------------------------------------------------------------------|
C|---------------------------------------------------------------------------|

 00:40-00:42 Lee Gaze (Lead Guitar)
D|---------------------------------------------------------------------------|
A|--10-10-10-10-10-10-10-10-10-10-10-10-10-10-10-----------------------------|
F|--x--x--x--x--x--x--x--x--x--x--x--x--x--x--x------------------------------|
C|--9--9--9--9--9--9--9--9--9--9--9--9--9--9--9------------------------------|x1
G|--7--7--7--7--7--7--7--7--7--7--7--7--7--7--7------------------------------|
C|---------------------------------------------------------------------------|

 00:42-00:45 Lee Gaze (Lead Guitar)
D|---------------------------------------------------------------------------|
A|--10-10-10-10-10-10-10-10-10-10-10-10-10-10-10-----------------------------|
F|--9--9--9--9--9--9--9--9--9--9--9--9--9--9--9------------------------------|
C|--7--7--7--7--7--7--7--7--7--7--7--7--7--7--7---(16 times)-----------------|x1
G|--9--9--9--9--9--9--9--9--9--9--9--9--9--9--9------------------------------|
C|---------------------------------------------------------------------------|

 00:45-00:48 Lee Gaze (Lead Guitar)
D|---------------------------------------------------------------------------|
A|--9-9-9-9-9-9-9-9-9-9-9-9-9-9-9--------------------------------------------|
F|--9-9-9-9-9-9-9-9-9-9-9-9-9-9-9----(16 times)------------------------------|
C|--7-7-7-7-7-7-7-7-7-7-7-7-7-7-7--------------------------------------------|x1
G|--9-9-9-9-9-9-9-9-9-9-9-9-9-9-9--------------------------------------------|
C|---------------------------------------------------------------------------|
 
 00:48-00:50 Lee Gaze (Lead Guitar)
D|---------------------------------------------------------------------------|
A|--10-10-10-10-10-10-10-10-10-10-10-10-10-10-10-----------------------------|
F|--x--x--x--x--x--x--x--x--x--x--x--x--x--x--x------------------------------|
C|--7--7--7--7--7--7--7--7--7--7--7--7--7--7--7------------------------------|x1
G|---------------------------------------------------------------------------|
C|---------------------------------------------------------------------------|

 00:50-00:53 Lee Gaze (Lead Guitar)
D|---------------------------------------------------------------------------|
A|--10-10-10-10-10-10-10-10-10-10-10-10-10-10-10-----------------------------|
F|--x--x--x--x--x--x--x--x--x--x--x--x--x--x--x------------------------------|
C|--9--9--9--9--9--9--9--9--9--9--9--9--9--9--9------------------------------|x1
G|--7--7--7--7--7--7--7--7--7--7--7--7--7--7--7------------------------------|
C|---------------------------------------------------------------------------|

 00:53-00:56 Lee Gaze (Lead Guitar)
D|---------------------------------------------------------------------------|
A|--10-10-10-10-10-10-10-10-10-10-10-10-10-10-10-----------------------------|
F|--9--9--9--9--9--9--9--9--9--9--9--9--9--9--9------------------------------|
C|--7--7--7--7--7--7--7--7--7--7--7--7--7--7--7---(16 times)-----------------|x1
G|--9--9--9--9--9--9--9--9--9--9--9--9--9--9--9------------------------------|
C|---------------------------------------------------------------------------|

 00:56-00:59 Lee Gaze (Lead Guitar)
D|---------------------------------------------------------------------------|
A|--9-9-9-9-9-9-9-9-9-9-9-9-9-9-9--------------------------------------------|
F|--9-9-9-9-9-9-9-9-9-9-9-9-9-9-9----(16 times)------------------------------|
C|--7-7-7-7-7-7-7-7-7-7-7-7-7-7-7--------------------------------------------|x1
G|--9-9-9-9-9-9-9-9-9-9-9-9-9-9-9--------------------------------------------|
C|---------------------------------------------------------------------------|

 Bridge
 00:56-00:59 Mike Lewis (Rhythm Guitar)
D|---------------------------------------------------------------------------|
A|---------------------------------------------------------------------------|
F|---------------------------------------------------------------------------|
C|--x--xx-xx-x-xxx-----------------------------------------------------------|x1
G|--x--xx-xx-x-xxx-----------------------------------------------------------|
C|--x--xx-xx-x-xxx-----------------------------------------------------------|

 Chorus
 00:59-01:05 
D|-----------------------------------------------------------------------|
A|--3-3-3-3-3-3-3-3-3-3/5-5-5-5-5/7-7-7-7-7/10-10------------------------|
F|--2-2-2-2-2-2-2-2-2-2/4-4-4-4-4/6-6-6-6-6/9--9-------------------------|
C|--0-0-0-0-0-0-0-0-0-0/2-2-2-2-2/4-4-4-4-4/7--7-------------------------|x1
G|--0-0-0-0-0-0-0-0-0-0/2-2-2-2-2/4-4-4-4-4/7--7-------------------------|
C|--0-0-0-0-0-0-0-0-0-0/2-2-2-2-2/4-4-4-4-4/7--7-------------------------|
 
01:05-01:10 Both Guitars
D|-----------------------------------------------------------------------|
A|--3-3-3-3-3-3-3-3-3-3/5-5-5-5-5/7-7-7-7-7/5-5--------------------------|
F|--2-2-2-2-2-2-2-2-2-2/4-4-4-4-4/6-6-6-6-6/4-4--------------------------|
C|--0-0-0-0-0-0-0-0-0-0/2-2-2-2-2/4-4-4-4-4/2-2--------------------------|x1
G|--0-0-0-0-0-0-0-0-0-0/2-2-2-2-2/4-4-4-4-4/2-2--------------------------|
C|--0-0-0-0-0-0-0-0-0-0/2-2-2-2-2/4-4-4-4-4/2-2--------------------------|
  
 01:10-01:15 Both Guitars
D|-----------------------------------------------------------------------|
A|--3-3-3-3-3-3-3-3-3-3/5-5-5-5-5/7-7-7-7-7/10-10------------------------|
F|--2-2-2-2-2-2-2-2-2-2/4-4-4-4-4/6-6-6-6-6/9--9-------------------------|
C|--0-0-0-0-0-0-0-0-0-0/2-2-2-2-2/4-4-4-4-4/7--7-------------------------|x1
G|--0-0-0-0-0-0-0-0-0-0/2-2-2-2-2/4-4-4-4-4/7--7-------------------------|
C|--0-0-0-0-0-0-0-0-0-0/2-2-2-2-2/4-4-4-4-4/7--7-------------------------|
 
 
 01:15-01:21 Both Guitars
D|-----------------------------------------------------------------------|
A|--3-3-3-3-3-3-3-3-3-3/5-5-5-5-5/7-7-7-7-7/5-5--------------------------|
F|--2-2-2-2-2-2-2-2-2-2/4-4-4-4-4/6-6-6-6-6/4-4--------------------------|
C|--0-0-0-0-0-0-0-0-0-0/2-2-2-2-2/4-4-4-4-4/2-2--------------------------|x1
G|--0-0-0-0-0-0-0-0-0-0/2-2-2-2-2/4-4-4-4-4/2-2--------------------------|
C|--0-0-0-0-0-0-0-0-0-0/2-2-2-2-2/4-4-4-4-4/2-2--------------------------|
 
 01:21-02:01 Mike Lewis (Rhytm Guitar)
D|-----------------------------------------------------------------------------------|
A|-----------------------------------------------------------------------------------|
F|-----------------------------------------------------------------------------------|
C|-(x16)-----------(x16)--------(x16)--------------(x16)-----------------------------|x1
G|---5---------------7------------9-----------------12-------------------------------|
C|---5---------------7------------9-----------------12-------------------------------|
 P.M..               .            .                 .
 
 01:21-01:24 Lee Gaze (Lead Guitar)
D|---------------------------------------------------------------------------|
A|--10-10-10-10-10-10-10-10-10-10-10-10-10-10-10-----------------------------|
F|--x--x--x--x--x--x--x--x--x--x--x--x--x--x--x------------------------------|
C|--7--7--7--7--7--7--7--7--7--7--7--7--7--7--7------------------------------|x1
G|---------------------------------------------------------------------------|
C|---------------------------------------------------------------------------|
 
 01:24-01:26 Lee Gaze (Lead Guitar)
D|---------------------------------------------------------------------------|
A|--10-10-10-10-10-10-10-10-10-10-10-10-10-10-10-----------------------------|
F|--x--x--x--x--x--x--x--x--x--x--x--x--x--x--x------------------------------|
C|--9--9--9--9--9--9--9--9--9--9--9--9--9--9--9------------------------------|x1
G|--7--7--7--7--7--7--7--7--7--7--7--7--7--7--7------------------------------|
C|---------------------------------------------------------------------------|
 
 01:26-01:29 Lee Gaze (Lead Guitar)
D|---------------------------------------------------------------------------|
A|--10-10-10-10-10-10-10-10-10-10-10-10-10-10-10-----------------------------|
F|--9--9--9--9--9--9--9--9--9--9--9--9--9--9--9------------------------------|
C|--7--7--7--7--7--7--7--7--7--7--7--7--7--7--7---(16 times)-----------------|x1
G|--9--9--9--9--9--9--9--9--9--9--9--9--9--9--9------------------------------|
C|---------------------------------------------------------------------------|

 01:29-01:31 Lee Gaze (Lead Guitar)
D|---------------------------------------------------------------------------|
A|--9-9-9-9-9-9-9-9-9-9-9-9-9-9-9--------------------------------------------|
F|--9-9-9-9-9-9-9-9-9-9-9-9-9-9-9----(16 times)------------------------------|
C|--7-7-7-7-7-7-7-7-7-7-7-7-7-7-7--------------------------------------------|x1
G|--9-9-9-9-9-9-9-9-9-9-9-9-9-9-9--------------------------------------------|
C|---------------------------------------------------------------------------|

 01:31-01:34 Lee Gaze (Lead Guitar)
D|---------------------------------------------------------------------------|
A|--10-10-10-10-10-10-10-10-10-10-10-10-10-10-10-----------------------------|
F|--x--x--x--x--x--x--x--x--x--x--x--x--x--x--x------------------------------|
C|--7--7--7--7--7--7--7--7--7--7--7--7--7--7--7------------------------------|x1
G|---------------------------------------------------------------------------|
C|---------------------------------------------------------------------------|

 01:34-01:37 Lee Gaze (Lead Guitar)
D|---------------------------------------------------------------------------|
A|--10-10-10-10-10-10-10-10-10-10-10-10-10-10-10-----------------------------|
F|--x--x--x--x--x--x--x--x--x--x--x--x--x--x--x------------------------------|
C|--9--9--9--9--9--9--9--9--9--9--9--9--9--9--9------------------------------|x1
G|--7--7--7--7--7--7--7--7--7--7--7--7--7--7--7------------------------------|
C|---------------------------------------------------------------------------|

 01:37-01:39 Lee Gaze (Lead Guitar)
D|---------------------------------------------------------------------------|
A|--10-10-10-10-10-10-10-10-10-10-10-10-10-10-10-----------------------------|
F|--9--9--9--9--9--9--9--9--9--9--9--9--9--9--9------------------------------|
C|--7--7--7--7--7--7--7--7--7--7--7--7--7--7--7---(16 times)-----------------|x1
G|--9--9--9--9--9--9--9--9--9--9--9--9--9--9--9------------------------------|
C|---------------------------------------------------------------------------|

 01:39-1:42 Lee Gaze (Lead Guitar)
D|---------------------------------------------------------------------------|
A|--9-9-9-9-9-9-9-9-9-9-9-9-9-9-9--------------------------------------------|
F|--9-9-9-9-9-9-9-9-9-9-9-9-9-9-9----(16 times)------------------------------|
C|--7-7-7-7-7-7-7-7-7-7-7-7-7-7-7--------------------------------------------|x1
G|--9-9-9-9-9-9-9-9-9-9-9-9-9-9-9--------------------------------------------|
C|---------------------------------------------------------------------------|
 
 01:42-02:04 Lee Gaze (Lead Guitar)
D|---------------------------------------------------------------------------------------|
A|-10--10-10--10-10--10-10--9--9-9--9-9--9-9--10--10-10--10-10--10-10--9--9-9--9-9--9-9--|
F|---9------9------9------9--9----9----9----9---9------9------9------9--9----9----9----9-|
C|----9------9------9------9--9----9----9----9---7------7------7------7--7----7----7----7|x1
G|---------------------------------------------------------------------------------------|
C|---------------------------------------------------------------------------------------|

 Bridge
 02:01-02:04 Mike Lewis (Rhythm Guitar)
D|---------------------------------------------------------------------------|
A|---------------------------------------------------------------------------|
F|---------------------------------------------------------------------------|
C|--x--xx-xx-x-xxx-----------------------------------------------------------|x1
G|--x--xx-xx-x-xxx-----------------------------------------------------------|
C|--x--xx-xx-x-xxx-----------------------------------------------------------|

 02:04-02:09 Both Guitars
D|------------------------------------------------------------------------|
A|--3-3-3-3-3-3-3-3-3-3/5-5-5-5-5/7-7-7-7-7/10-10-------------------------|
F|--2-2-2-2-2-2-2-2-2-2/4-4-4-4-4/6-6-6-6-6/9--9--------------------------|
C|--0-0-0-0-0-0-0-0-0-0/2-2-2-2-2/4-4-4-4-4/7--7--------------------------|x1
G|--0-0-0-0-0-0-0-0-0-0/2-2-2-2-2/4-4-4-4-4/7--7--------------------------|
C|--0-0-0-0-0-0-0-0-0-0/2-2-2-2-2/4-4-4-4-4/7--7--------------------------|


 02:09-02:15 Both Guitars
D|-----------------------------------------------------------------------|
A|--3-3-3-3-3-3-3-3-3-3/5-5-5-5-5/7-7-7-7-7/5-5--------------------------|
F|--2-2-2-2-2-2-2-2-2-2/4-4-4-4-4/6-6-6-6-6/4-4--------------------------|
C|--0-0-0-0-0-0-0-0-0-0/2-2-2-2-2/4-4-4-4-4/2-2--------------------------|x1
G|--0-0-0-0-0-0-0-0-0-0/2-2-2-2-2/4-4-4-4-4/2-2--------------------------|
C|--0-0-0-0-0-0-0-0-0-0/2-2-2-2-2/4-4-4-4-4/2-2--------------------------|

 02:15-02:20 Both Guitars
D|------------------------------------------------------------------------|
A|--3-3-3-3-3-3-3-3-3-3/5-5-5-5-5/7-7-7-7-7/10-10-------------------------|
F|--2-2-2-2-2-2-2-2-2-2/4-4-4-4-4/6-6-6-6-6/9--9--------------------------|
C|--0-0-0-0-0-0-0-0-0-0/2-2-2-2-2/4-4-4-4-4/7--7--------------------------|x1
G|--0-0-0-0-0-0-0-0-0-0/2-2-2-2-2/4-4-4-4-4/7--7--------------------------|
C|--0-0-0-0-0-0-0-0-0-0/2-2-2-2-2/4-4-4-4-4/7--7--------------------------|

 02:20-02:25 Both Guitars
D|-----------------------------------------------------------------------|
A|--3-3-3-3-3-3-3-3-3-3/5-5-5-5-5/7-7-7-7-7/5-5--------------------------|
F|--2-2-2-2-2-2-2-2-2-2/4-4-4-4-4/6-6-6-6-6/4-4--------------------------|
C|--0-0-0-0-0-0-0-0-0-0/2-2-2-2-2/4-4-4-4-4/2-2--------------------------|x1
G|--0-0-0-0-0-0-0-0-0-0/2-2-2-2-2/4-4-4-4-4/2-2--------------------------|
C|--0-0-0-0-0-0-0-0-0-0/2-2-2-2-2/4-4-4-4-4/2-2--------------------------|

 02:25-02:46 Mike Lewis (Rhythm Guitar)
D|-----------------------------------------------------------------------------------|
A|-----------------------------------------------------------------------------------|
F|-----------------------------------------------------------------------------------|
C|-(x16)-----------(x16)--------(x16)--------------(x16)-----------------------------|x1
G|---5---------------7------------9-----------------12-------------------------------|
C|---5---------------7------------9-----------------12-------------------------------|
 P.M..               .            .                 .

 Solo
 02:25-02:33 Lee Gaze (Lead Guitar)
D|--9/17-17-17-17-17-17-17-17-16-16-16-16-16-16-16-16-12-12-12-12-12-12-12-12-9/14-14-14-14-14-14-14-14----|
A|--x-x--x--x--x--x--x--x--x--x--x--x--x--x--x--x--x--x--x--x--x--x--x--x--x--x-x--x--x--x--x--x--x--x-----|
F|--6/14-14-14-14-14-14-14-14-13-13-13-13-13-13-13-13-9--9--9--9--9--9--9--9--6/11-11-11-11-11-11-11-11----|
C|---------------------------------------------------------------------------------------------------------|x1
G|---------------------------------------------------------------------------------------------------------|
C|---------------------------------------------------------------------------------------------------------|

 02:33-02:41 Lee Gaze (Lead Guitar)
D|--16\12-12-12-12-12-12-12-12-9-17-17-17-17-17-17-17-17/19-19-19-19-19-19-19-19/21-21-21|
A|--x--x--x--x--x--x--x--x--x--x-x--x--x--x--x--x--x--x--x--x--x--x--x--x--x--x--x--x--x-|
F|--13\9--9--9--9--9--9--9--9--6-14-14-14-14-14-14-14-14/16-16-16-16-16-16-16-16/18-18-18|
C|---------------------------------------------------------------------------------------|x1
G|---------------------------------------------------------------------------------------|
C|---------------------------------------------------------------------------------------|

 02:41-02:46 Lee Gaze (Lead Guitar)
D|---19-19-19\17-17-17-17-17--9/14-14-14-14-14-14-14--14-14-14-14-14-14------|
A|---x--x--x--x--x--x--x--x---x-x--x--x--x--x--x--x---x--x--x--x--x--x-------|
F|---16-16-16\14-14-14-14-14--6/11-11-11-11-11-11-11--11-11-11-11-11-11------|
C|------(x7)-----------(x3)---(x3)-------------------------------------------|x1
F|---------------------------------------------------------------------------|
C|---------------------------------------------------------------------------|

 02:44-02:46 Mike Lewis (Rhythm Guitar)
D|---------------------------------------------------------------------------|
A|---------------------------------------------------------------------------|
F|---------------------------------------------------------------------------|
C|--2-2-2-2-2-2--------------------------------------------------------------|x1
G|--2-2-2-2-2-2--------------------------------------------------------------|
C|--2-2-2-2-2-2--------------------------------------------------------------|

 Outro
 02:46-02:58 Both Guitars
D|---------------------------------------------------------------------------|
A|--33333-33333--333---------------------------------------------------------|
F|--22222-22222--222---------------------------------------------------------|
C|--00000-00000--000--22222-22222-222--44444-44444-444-77777-77777-777-------|x1
G|--00000-00000--000--22222-22222-222--44444-44444-444-77777-77777-777-------|
C|--00000-00000--000--22222-22222-222--44444-44444-444-77777-77777-777-------|

 02:58-03:08 Lee Gaze (Lead Guitar)
D|--------------------------------------------------------------------------------------|
A|10--10-10--10-10--10-10--9--9-9--9-9--9-9--10--10-10--10-10--10-10--9--9-9--9-9--9-9--|
F|---9-----9------9------9--9----9----9----9---9------9------9------9--9----9----9----9-|
C|----9-----9------9------9--9----9----9----9---7------7------7------7--7----7----7----7|x1
G|--------------------------------------------------------------------------------------|
C|--------------------------------------------------------------------------------------|

 02:58-03:08 Both Guitars
D|---------------------------------------------------------------------------|
A|--33333-33333--333---------------------------------------------------------|
F|--22222-22222--222---------------------------------------------------------|
C|--00000-00000--000--22222-22222-222--44444-44444-444-77777-77777-777-------|x1
G|--00000-00000--000--22222-22222-222--44444-44444-444-77777-77777-777-------|
C|--00000-00000--000--22222-22222-222--44444-44444-444-77777-77777-777-------|

 03:08-03:13 Both Guitars
D|-----(x16)-------------------------------------------------------------------|
A|--3-3-3-3-3-3-3-3-3-3-3-3-3-3-3-3--------------------------------------------|
F|--2-2-2-2-2-2-2-2-2-2-2-2-2-2-2-2--------------------------------------------|
C|--0-0-0-0-0-0-0-0-0-0-0-0-0-0-0-0--------------------------------------------|x1
G|--0-0-0-0-0-0-0-0-0-0-0-0-0-0-0-0/2-2-2-2-2-2/4-4-4-4-4-4\7-7-7-7------------|
C|--0-0-0-0-0-0-0-0-0-0-0-0-0-0-0-0/2-2-2-2-2-2/4-4-4-4-4-4\7-7-7-7------------|

 03:13-03:20 Both Guitars
D|-----(x16)-------------------------------------------------------------------|
A|--3-3-3-3-3-3-3-3-3-3-3-3-3-3-3-3--------------------------------------------|
F|--2-2-2-2-2-2-2-2-2-2-2-2-2-2-2-2--------------------------------------------|
C|--0-0-0-0-0-0-0-0-0-0-0-0-0-0-0-0--------------------------------------------|x1
G|--0-0-0-0-0-0-0-0-0-0-0-0-0-0-0-0/2-2-2-2-2-2/4-4-4-4-4-4\2-2-2-2------------|
C|--0-0-0-0-0-0-0-0-0-0-0-0-0-0-0-0/2-2-2-2-2-2/4-4-4-4-4-4\2-2-2-2------------|
 
 03:20-03:25 Both Guitars
D|------------------------------------------------------------------------|
A|--3-3-3-3-3-3-3-3-3-3---------------------------------------------------|
F|--2-2-2-2-2-2-2-2-2-2---------------------------------------------------|
C|--0-0-0-0-0-0-0-0-0-0/2-2-2-2-2/4-4-4-4-4/7-7---------------------------|x1
G|--0-0-0-0-0-0-0-0-0-0/2-2-2-2-2/4-4-4-4-4/7-7---------------------------|
C|--0-0-0-0-0-0-0-0-0-0/2-2-2-2-2/4-4-4-4-4/7-7---------------------------|



 03:25-03:30 Both Guitars
D|------------------------------------------------------------------------|
A|--3-3-3-3-3-3-3-3-3-3-3-3-3-3-3-3---------------------------------------|
F|--2-2-2-2-2-2-2-2-2-2-2-2-2-2-2-2---------------------------------------|
C|--0-0-0-0-0-0-0-0-0-0-0-0-0-0-0-0---------------------------------------|x1
G|--0-0-0-0-0-0-0-0-0-0-0-0-0-0-0-0-4-4-4-2-2-2---------------------------|
C|--0-0-0-0-0-0-0-0-0-0-0-0-0-0-0-0-4-4-4-2-2-2---------------------------|
 
 03:30-03:36 Both Guitars
D|------------------------------------------------------------------------|
A|--3-3-3-3-3-3-3-3-3-3/5-5-5-5-5/7-7-7-7-7/10-10-------------------------|
F|--2-2-2-2-2-2-2-2-2-2/4-4-4-4-4/6-6-6-6-6/9--9--------------------------|
C|--0-0-0-0-0-0-0-0-0-0/2-2-2-2-2/4-4-4-4-4/7--7--------------------------|x1
G|--0-0-0-0-0-0-0-0-0-0/2-2-2-2-2/4-4-4-4-4/7--7--------------------------|
C|--0-0-0-0-0-0-0-0-0-0/2-2-2-2-2/4-4-4-4-4/7--7--------------------------|



 03:36-03:41 Both Guitars
D|-----------------------------------------------------------------------|
A|--3-3-3-3-3-3-3-3-3-3/5-5-5-5-5/7-7-7-7-7/5-5--------------------------|
F|--2-2-2-2-2-2-2-2-2-2/4-4-4-4-4/6-6-6-6-6/4-4--------------------------|
C|--0-0-0-0-0-0-0-0-0-0/2-2-2-2-2/4-4-4-4-4/2-2--------------------------|x1
G|--0-0-0-0-0-0-0-0-0-0/2-2-2-2-2/4-4-4-4-4/2-2--------------------------|
C|--0-0-0-0-0-0-0-0-0-0/2-2-2-2-2/4-4-4-4-4/2-2--------------------------|
 
03:41-03:46 Both Guitars
D|------------------------------------------------------------------------|
A|--3-3-3-3-3-3-3-3-3-3/5-5-5-5-5/7-7-7-7-7/10-10-------------------------|
F|--2-2-2-2-2-2-2-2-2-2/4-4-4-4-4/6-6-6-6-6/9--9--------------------------|
C|--0-0-0-0-0-0-0-0-0-0/2-2-2-2-2/4-4-4-4-4/7--7--------------------------|x1
G|--0-0-0-0-0-0-0-0-0-0/2-2-2-2-2/4-4-4-4-4/7--7--------------------------|
C|--0-0-0-0-0-0-0-0-0-0/2-2-2-2-2/4-4-4-4-4/7--7--------------------------|


 03:46-03:52 Both Guitars
D|-----------------------------------------------------------------------|
A|--3-3-3-3-3-3-3-3-3-3/5-5-5-5-5/7-7-7-7-7/5-5--10--9--7~---------------|
F|--2-2-2-2-2-2-2-2-2-2/4-4-4-4-4/6-6-6-6-6/4-4--9---9--9~---------------|
C|--0-0-0-0-0-0-0-0-0-0/2-2-2-2-2/4-4-4-4-4/2-2--7---7--7~---------------|x1
G|--0-0-0-0-0-0-0-0-0-0/2-2-2-2-2/4-4-4-4-4/2-2--9---9--9~---------------|
C|--0-0-0-0-0-0-0-0-0-0/2-2-2-2-2/4-4-4-4-4/2-2--------------------------|




************************************

| /   slide up
| \   slide down
| h   hammer-on
| p   pull-off
| ~   vibrato
| +   harmonic
| x   Mute note
| b   Bend
| pb  Pre-bend
| br  Bend release
| pbr Pre-bend release
| brb Bend release bend

************************************

            
            
Suggest correction
Creating personal tab
Creating personal tab
You can edit any tab online and save it as your Personal.

You can edit, replace or remove any tab part or add personal notes – all changes will be seen only by you.

Personal tabs can be accessed anytime from any device, even offline.
Learn more »
Give kudos to tab author, rate the tab!
1 2 3 4 5
comments
print report bad tab
1 comment total.
0 reply
okman 358 Feb 24, 2016 01:16 AM

In the solo just ignore the (x ) which are below.They're a typo.

guest
You may want to rate the tab now too:
select rating
Wanna post a correction for this tab? Suggest correction