Oops, an error
Loading. Please wait.

Rooftops tab

6,323 views 1 this week
6 commentsread comments
1 2 3 4 5
x 3
add to favorites
×
Save as Personal and add changes to this tab that will be seen only by you. Learn more ›
×
You can save this tab as Personal to edit and correct it or add notes. All changes will be seen only by you. Learn more »
launch autoscroll
font size
0
reset
how to read this tab
guitar tuner
backing track
0:00
0:00
edit
Autoscroll
slow
fast
+/-
esc
set tempo
stop
This is my first tab ever, so there's probably alot of mistakes. If you spot one just 
it in a comment and i'll correct it. Thanks ;]

LostProphets - Rooftops

From their new album Liberation Transmission

Tuning : Drop c - C-G-C-F-A-D

Key:

| /  slide up
| \  slide down
| h  hammer-on
| p  pull-off
| ~  vibrato
| +  harmonic
| x  Mute note

INTRO

D||-----------------------------------||
A||-----------------------------------||
F||-14--14----------14--13------------||
C||-xx--xx--14--14--xx--xx------------|| x1
G||-12--11--xx--14--12--11------------||
C||---------12--14--------------------||

D||-----------------------------------||
A||-----------------------------------||
F||---------14--13--------------------||
C||-14--14--xx--xx--------------------|| x2
G||-xx--14--12--11--------------------||
C||-12--14----------------------------||

VERSE

D||-----------------------------------||
A||-----------------------------------||
F||-----------------------------------||
C||-12--14--16------------------------||x2
G||-12--14--16------------------------||
C||-12--14--16------------------------||

CHORUS

D||-----------------------------------||
A||-----------------------------------||
F||-----------------------------------||
C||-0--2--4--7------------------------||x4
G||-0--2--4--7------------------------||
C||-0--2--4--7------------------------||

VERSE 2
Guitar 1

D||-----------------------------------||
A||-----------------------------------||
F||-------------14--------------------||
C||-12--14--16--xx--------------------||x3
G||-12--14--16--12--------------------||
C||-12--14--16------------------------||

D||-----------------------------------||
A||-----------------------------------||
F||-----------------------------------||
C||-12--14--16------------------------||x1
G||-12--14--16------------------------||
C||-12--14--16------------------------||

VERSE 2
Guitar 2

D||-----------------------------------||
A||-----------------------------------||
F||-----------------------------------||
C||-0--2--4--7------------------------||x3
G||-0--2--4--7------------------------||
C||-0--2--4--7------------------------||
    x  x  x  x

D||-----------------------------------||
A||-----------------------------------||
F||-----------------------------------||
C||-0--2--4---------------------------||x1
G||-0--2--4---------------------------||
C||-0--2--4---------------------------||
    x  x  x
CHORUS

D||-----------------------------------||
A||-----------------------------------||
F||-----------------------------------||
C||-0--2--4--6------------------------||x4
G||-0--2--4--6------------------------||
C||-0--2--4--6------------------------||

SOLO
Guitar 1

D||-----------------------------------||
A||-----------------------------------||
F||-----------------------------------||
C||-11/19-18-14-11-16-18-14-----------||
G||-----------------------------------||
C||-----------------------------------||

D||-----------------------------------||
A||-----------------------------------||
F||-----------------------------------||
C||-11/19-21-18-16-14-11-16-14--------||x2
G||-----------------------------------||
C||-----------------------------------||

Guitar 2

D||-----------------------------------||
A||-----------------------------------||
F||-----------------------------------||
C||-0--2--4--6------------------------||x4
G||-0--2--4--6------------------------||
C||-0--2--4--6------------------------||

The rest of the song is just the same chords as in the chorus. Should be easy for you to work out.

Enjoy ;]

- Jamie
Suggest correction
Creating personal tab
Creating personal tab
You can edit any tab online and save it as your Personal.

You can edit, replace or remove any tab part or add personal notes – all changes will be seen only by you.

Personal tabs can be accessed anytime from any device, even offline.
Learn more »
Give kudos to tab author, rate the tab!
1 2 3 4 5
comments
print report bad tab
6 comments total. Showing first comments.
0 reply
Jamie90 52 May 27, 2006 09:16 AM

Sorry, I forgot to remove the x4 on the solo you just play each part once.

0 reply
SV's Fender 10 Jun 08, 2006 12:24 PM

i was wondering if you could put how many time you strum each chord.thatd really help thanks.apart from that the tab seems good.

0 reply
Rollingstone24 121 Jun 16, 2006 04:55 PM

It sux

guest
You may want to rate the tab now too:
select rating
Wanna post a correction for this tab? Suggest correction