Oops, an error
Loading. Please wait.

Shinobi Vs Dragon Ninja bass

version 4
version 4
592 views 1 this week
3 commentsread comments
1 2 3 4 5
2 more votes to show rating
add to favorites
×
Save as Personal and add changes to this tab that will be seen only by you. Learn more ›
×
You can save this tab as Personal to edit and correct it or add notes. All changes will be seen only by you. Learn more »
launch autoscroll
font size
0
reset
guitar tuner
backing track
0:00
0:00
edit
Autoscroll
slow
fast
+/-
esc
set tempo
stop
Author
Difficulty
			     SONG NAME - Band Name
-------------------------------------------------------------------------------

Tabbed By :Wattafak 91
e-mail:wattafak91@hotmail.com

I think this is almost 100% correct. I saw the others and they were all wrong. If you 
something that's wrong please mail me the correct part of it!

Tuning:  Drop D

Start playing when te drums come in.

Intro
G|------------------------------------------------|
D|------------------------------------------------|  2x
A|-3 33 33 33-------------------------------------|
D|------------11111111-333333333------------------|

Verse
G|-------------------------------------------------------------------|
D|-------------------------------------------------------------------| 2x
A|--3-3--33—33—3333--3-3--33—33—3333---------------------------------|
D|----------------------------------1-1-11-1-1-1111-0-0-00-0-0-0000--|

Pre Chorus With some strange kind of sound.
G|--------------------------------------------------------|
D|----5---5 3/5\3---5---5-3/5\3---5--5--5---8---8---8-----| 2x
A|--3---3---------3---3-------------------6---6---6-------|
D|------------------------------8--8--8-------------------|


Chorus
G|------------------------------------------------|
D|------------------------------------------------|  2x
A|-3 33 33 33-------------------------------------|
D|------------11111111-333333333------------------|

Verse
G|-------------------------------------------------------------------|
D|-------------------------------------------------------------------| 2x
A|--3-3--33—33—3333--3-3--33—33—3333---------------------------------|
D|----------------------------------1-1-11-1-1-1111-0-0-00-0-0-0000--|

Pre Chorus With some strange kind of sound.
G|---------------------------------------------------------------------|
D|----5---5 3/5\3---5---5-3/5\3---5--5--5---8---8---8------------------| 2x
A|--3---3---------3---3-------------------6---6---6--------------------|
D|------------------------------8--8--8--------------------------------|

Chorus
G|------------------------------------------------|
D|------------------------------------------------|  2x
A|-3 33 33 33-------------------------------------|
D|------------11-11-11-11-33-33-33-33-3-----------|

Keep the notes ring till the next one comes.
Bridge:
G|--------------------------------------------------------------------------|
D|--------------------------------------------------------------------------|
A|---3>--3>-----------------------------------------------------------------|
D|-1>--1>--1>---------------------------------------------------------------|

G|----------------------------|
D|----------------------------| 2x
A|-3-365-33-365-33-365-33-365-|
D|----------------------------|

G|-----------------------------|
D|-----------------------------| Till the end!
A|-----------------------------|
D|-0-0-00-0-0-0000-------------|

| /  slide up
| \  slide down
| h  hammer-on
| p  pull-off
| ~  vibrato
| +  harmonic
| x  Mute note
===============================================================================

            
            
Suggest correction
Creating personal tab
Creating personal tab
You can edit any tab online and save it as your Personal.

You can edit, replace or remove any tab part or add personal notes – all changes will be seen only by you.

Personal tabs can be accessed anytime from any device, even offline.
Learn more »
Give kudos to tab author, rate the tab!
1 2 3 4 5
comments
print report bad tab
3 comments total.
0 reply
sir-psycho-sexy 31 Sep 24, 2007 05:25 AM

SHIT

0 reply
dngrouscrgo 219 Feb 20, 2008 08:06 AM

thanks a lot man you gave me the basis of the song. btw i think the only bit wrong was the prechorus where i think you actualy play:

g|-------------|-------------|--------|------------|
d|---5----5h6p5|---5----5h6p5|--------|------------|
a|-3---3-------|-3---3-------|---8---8|----13----13|
d|-------------|-------------|-8---8--|/13----13---|

0 reply
frankibo 1,416 Apr 07, 2009 01:42 PM

not much of this is anywhere near right

guest
You may want to rate the tab now too:
select rating
Wanna post a correction for this tab? Suggest correction