Oops, an error
Loading. Please wait.

Shinobi Vs Dragon Ninja bass

version 7
version 7
644 views 1 this week
no commentswrite comment
1 2 3 4 5
3 more votes to show rating
add to favorites
×
Save as Personal and add changes to this tab that will be seen only by you. Learn more ›
×
You can save this tab as Personal to edit and correct it or add notes. All changes will be seen only by you. Learn more »
launch autoscroll
font size
0
reset
guitar tuner
backing track
0:00
0:00
edit
Autoscroll
slow
fast
+/-
esc
set tempo
stop
Intro
No bass, but you can do it anyway
|-----8p7--------8p7--------8p7-------8p7--------10---------10-|
|--------------------------------------------------------------|
|5--5-----5-5--5-----5-5--5-----5-555-----8-8--8-----8-8--8----|
|--------------------------------------------------------------|

|----------12-----------12-|
|--------------------------|
|10--10-10----10--10-10----|
|--------------------------|

====

|-----------| |-------------|  |-------3--------3--------5--------5-|
|-----------| |-------------|  |-------3--------3--------5--------5-|
|-----------| |-------------|x3|------------------------------------|
|0--0-15p14-| |0-0--0-15p14-|  |3-3--3---3-3--3---5-5--5---5-5--5---|

|-----------| |-------------|  |--------------------------------------------------|
|-----------| |-------------|  |--------------------------------------------------|
|-----------| |-------------|x3|--------------------------------------------------|
|0--0-15p14-| |0-0--0-15p14-|  |3-3--333-3-3-3--333-3-3-5-5--555-5-5-5-5--555-5-5-|

====
Verse:
|------------------------------------------------------------------------|
|------------------------------------------------------------------------|
|------------------------------------------------------------------------|
|0-0-00--0-0-00---0-0-00--0-0-00---3-3-33--3-3-33---2-2-22--2-2--2h3p2h3-|

|-----------------------------------------------------------------|
|-----------------------------------------------------------------|
|-----------------------------------------------------------------|
|0-0-00--0-0-00---0-0-00--0-0-00---3-3-33--3-3-33--2-2-22--2-2-22-|

Prechorus:
Weird ass effects. But you can easily play it with a Wha/wha.
|---12------------------|  |--10-------8h10p8----14------------|
|--------------12p10h12-|  |-----8--10--------------7777710-10-|
|10----8--/10-----------|x2|8-----------------12---------------|
|-----------------------|  |-----------------------------------|
====x2

Chorus:
|-----------| |-------------|  |-------3--------3--------5--------5-|
|-----------| |-------------|  |-------3--------3--------5--------5-|
|-----------| |-------------|x3|------------------------------------|
|0--0-15p14-| |0-0--0-15p14-|  |3-3--3---3-3--3---5-5--5---5-5--5---|
====x2

Verse:
|------------------------------------------------------------------------|
|------------------------------------------------------------------------|
|------------------------------------------------------------------------|
|0-0-00--0-0-00---0-0-00--0-0-00---3-3-33--3-3-33---2-2-22--2-2--2h3p2h3-|

|-----------------------------------------------------------------|
|-----------------------------------------------------------------|
|-----------------------------------------------------------------|
|0-0-00--0-0-00---0-0-00--0-0-00---3-3-33--3-3-33--2-2-22--2-2-22-|

Prechorus:
Weird ass effects again.
|---12------------------|  |--10-------8h10p8----14------------|
|--------------12p10h12-|  |-----8--10--------------7777710-10-|
|10----8--/10-----------|x2|8-----------------12---------------|
|-----------------------|  |-----------------------------------|
====x2

Chorus:
|-----------| |-------------|  |-------3--------3--------5--------5-|
|-----------| |-------------|  |-------3--------3--------5--------5-|
|-----------| |-------------|x3|------------------------------------|
|0--0-15p14-| |0-0--0-15p14-|  |3-3--3---3-3--3---5-5--5---5-5--5---|
====x2

Bridge:
|------------------------------------------------------------|
|------------------------------------------------------------|
|------------------------------------------------------------|
|8-----------0---------------8---------0-----------8---------|

|---|
|---|
|---|
|0X-|


|---------| |-------------|
|---------| |-------------|
|---------| |-------------|xalot
|0--15p14-| |0-0--0-15p14-|

|---------------------------------------------------------------------|
|---------------------------------------------------------------------|
|5-5-55-5-5-55-5-5-5-55-5-5-55-5-5-5-55-5-5-55-5-5-5-55-5-5-55-5-5----|
|---------------------------------------------------------------------|

Chorus:
|-----------| |-------------|  |-------3--------3--------5--------5-|
|-----------| |-------------|  |-------3--------3--------5--------5-|
|-----------| |-------------|x3|------------------------------------|
|0--0-15p14-| |0-0--0-15p14-|  |3-3--3---3-3--3---5-5--5---5-5--5---|
====x4

Outro:
OK, the rhythm got awkward as fuck here to put down on paper, but just play an open C to 
note untill it stops, and then it's just the guitar doing the riff again.

            
            
Suggest correction
Creating personal tab
Creating personal tab
You can edit any tab online and save it as your Personal.

You can edit, replace or remove any tab part or add personal notes – all changes will be seen only by you.

Personal tabs can be accessed anytime from any device, even offline.
Learn more »
Give kudos to tab author, rate the tab!
1 2 3 4 5
comments
print report bad tab
guest
You may want to rate the tab now too:
select rating
Wanna post a correction for this tab? Suggest correction