Oops, an error
Loading. Please wait.

Streets Of Nowhere bass

version 1
version 1

Whole song

Interactive

607 views 3 this week
1 commentread comment
1 2 3 4 5
x 3
add to favorites
×
Save as Personal and add changes to this tab that will be seen only by you. Learn more ›
×
You can save this tab as Personal to edit and correct it or add notes. All changes will be seen only by you. Learn more »
launch autoscroll
font size
0
reset
guitar tuner
edit
Autoscroll
slow
fast
+/-
esc
set tempo
stop
Author
Difficulty
Streets Of Nowhere Bass Tab


Intro/verse

G|-----------------------------------------------------|
D|-----------------------------------------------------|
A|-----------------------------------------------------|
E|-5-5-5-5-5-5-5-5-5-5-5-5-5-5-5-5-9-9-9-9-9-9-9-9-7-7-|

G|-----------------------------------------------------|
D|-----------------------------------------------------|
A|-----------------------------------------------------|
E|-7-7-7-7-7-7-----------------------------------------|

Prechorus

G|------------------------------------------------------|
D|------------------------------------------------------|
A|------------------------------------------------------|
E|-5-5-5-5-5-5-5-5-9-9-9-9-9-9-9-9-12-12-12-12-12-12-12-|

G|-----------------------------------------------------|
D|-----------------------------------------------------|
A|-----------------------------------------------------|
E|-12-7-7-7-7-7-7-7-7----------------------------------|  x2 On the second time dont play the 7s

Chorus

G|-----------------------------------------------------|
D|-----------------------------------------------------|
A|---------------------2-2-2-2-------------------------|
E|-5-5-5-5-0-0-0-0-0-0---------2-2-2-2-2-2-------------|

            
            
Suggest correction
Creating personal tab
Creating personal tab
You can edit any tab online and save it as your Personal.

You can edit, replace or remove any tab part or add personal notes – all changes will be seen only by you.

Personal tabs can be accessed anytime from any device, even offline.
Learn more »
Give kudos to tab author, rate the tab!
1 2 3 4 5
comments
print report bad tab
1 comment total.
0 reply
ceraniusmajora 10 Jan 02, 2017 12:17 PM

I think prechorus sounds more like this :

G|------------------------------------------------------|
D|------------------------------------------------------|
A|------------------------------------------------------|
E|-2-2-2-2-2-2-2-2-5-5-5-5-5-5-5-5-9-9-9-9-9-9-9-9-12-12|

G|-----------------------------------------------------|
D|-----------------------------------------------------|
A|-----------------------------------------------------|
E|-12-12-12-12-12--------------------------------------|

guest
You may want to rate the tab now too:
select rating
Wanna post a correction for this tab? Suggest correction