Oops, an error
Loading. Please wait.

The Fake Sound Of Progress album tab

version 1
version 1

Album

Interactive

4,608 views 1 this week
no commentswrite comment
1 2 3 4 5
1 last vote to show rating
add to favorites
×
Save as Personal and add changes to this tab that will be seen only by you. Learn more ›
×
You can save this tab as Personal to edit and correct it or add notes. All changes will be seen only by you. Learn more »
launch autoscroll
font size
0
reset
how to read this tab
guitar tuner
edit
Autoscroll
slow
fast
+/-
esc
set tempo
stop
Author
The Fake Sound of Progress

1 Shinobi Vs. Dragon Ninja
2 Fake Sound of Progress
3 Five Is a Four Letter Word
4 ...And She Told Me to Leave
5 Kobrakai
6 Handsome Life of Swing
7 Thousand Apologies
8 Still Laughing
9 For Sure
10 Awkward
11 Ode to Summer


1. Shinobi Vs. Dragon Ninja:

INTRO

e----------------------------------------------------------------|
B----------------------------------------------------------------|
G-------------------------------------------------8-------8------|
D-------------------------------------------------8-------8------|
A-3-3--6-5--333--6-5--333--6-5--333--6-5-----6-6-----666---------|
D----------------------------------------------------------------|

e----------------------------------------------------------------|
B----------------------------------------------------------------|
G--------10---------10-------------------------------------------|
D--------10---------10-------------------------------------------|
A-8-88-------8-88------------------------------------------------|
D----------------------------------------------------------------|

MAIN RIFF/CHORUS

PLAY TWICE

e----------------------------------------------------------------|
B----------------------------------------------------------------|
G-------------------------------------------------8------8-------|
D-3-3--6-5--333--6-5--333--6-5--333--6-5-----6-6--8--666-8-------|
A-3-3--6-5--333--6-5--333--6-5--333--6-5-----6-6--6--666-6-------|
D----------------------------------------------------------------|

e----------------------------------------------------------------|
B----------------------------------------------------------------|
G-------10---------10--------------------------------------------|
D-8-88--10---8-88--10--------------------------------------------|
A-8-88—-8----8-88—-8---------------------------------------------|
D-8-88-----------------------------------------------------------|


VERSE

e----------------------------------------------------------------|
B----------------------------------------------------------------|
G----------------------------------------------------------------|
D-3-3-33-33-3---3-3-33-33-3---7-7-77-77-7---6-6-66-66-6----------|
A-3-3-33-33-3---3-3-33-33-3---7-7-77-77-7---6-6-66-66-6----------|
D-3-3-33-33-3---3-3-33-33-3---7-7-77-77-7---6-6-66-66-6----------|

REPEATED TWICE, listen to song to get rhythm right.

PRE-CHORUS

And I sit and wonder.........falling under
e----------------------------------------------------------------|
B----------------------------------------------------------------|
G----------------------------------------------------------------|
D---13--13--13--13--13--13--15--13--13---------------------------|
A-----13--13--13--13--13--13--15-13--13--------------------------|
D----------------------------------------------------------------|

e--------------------------------------------------------------------|
B--------------------------------------------------------------------|
G--------------------------------------------------------------------|
D--13--13--13--13--13--13--13--13---15--15--15--15--17--17--17--17---|
A----13--13--13--13--13--13--13-13----15--15--15--15--17--17--17--17-|
D--------------------------------------------------------------------|

THEN CHORUS TWICE

THEN VERSE TWICE

THEN PRE-CHORUS

THEN CHORUS TWICE

INTERLUDE

e----------------------------------------------------------------|
B----------------------------------------------------------------|
G----------------------------------------------------------------|
D-5--------0--------5--------0--------5--------------------------|
A-5--------0--------5--------0--------5--------------------------|
D-5--------0--------5--------0--------5--------------------------|

The basic idea- end on 5

OUTRO

SINGING: None
e------------------------------------------------------------------------|
B------------------------------------------------------------------------|
G------------------------------------------------------------------------|
D-333--6-5--333--6-5--333--6-5--333--6-5---Repeat-3--3--3-3--3—-3—-3-3-3-|
A-333--6-5--333--6-5--333--6-5--333--6-5---Repeat-3--3--3-3--3—-3—-3-3-3-|
D-333--6-5--333--6-3--333--6-5--333--6-3----------3--3--3-3--3—-3--3-3-3-|

FINISH

2. The Fake Sound of Progress:
Intro:
E-----0-----0-----0-----0-----|
B---3-----3-----3-----3-------|
G-----------------------------|
D-----------------------------|
A-------------3---------------|
D-2-----4-----------0---------|
Chorus:
E------0-----0-----0-----0-----|
B----3-----3-----3-----3-------|
G------------------------------|
D--------------5---------------|
A--2-----4-----3-----0---------|
D--2-----4-----------0---------|

Verse:
E---------------|
B--8-7-8-7-10-8-|
G--9-9-9-9-9--9-|

Pre-Verse:
E------7--|
B---------|
G--7-9--9-|

Post-Chorus:
E------7-    ----7>10-8-|
B--------    -----------|
G--7-9--9 x3 7-9--------|

Breakdown:(rythym example repeated for other chord figures)
E.g:                 rythym for:
E--------------------------------------|
B--------------------------------------|
G--------------------------------------|
D--2-2-2-2-2-2-2--2-2         12--10---|
A--2-2-2-2-2-2-2--2-2         12--10---|
D--2-2-2-2-2-2-2--2-2         12--10---| and then:
  P.M----------------------------------|

E------------------|
B------------------|
G------------------|
D--7-777--5-555-44-|
A--7-777--5-555-44-|
D--7-777--5-555-44-|


'it sounds like':
E----------------|
B----------------|
G----------------|
D----------------|
A----------------|
D--220202/3/2-02-|

3. Five Is A Four Letter Word:

INTRO/CHORUS

E--------------------------|
B--------------------------|
G--------------------------|
D-8-5-5-5-5--5--5-5--5-5-5-|
A-8-5-5-5-5--5--5-5--5-5-5-|
D-8-5-5-5-5--5--5-5--5-5-5-|
Repeat a few times

Once every chorus this happens (right before “I don’t like you”)

E-----------------------------|
B-----------------------------|
G-----------------------------|
D-8-5-5-5-5--8--8-8--10-8-8-8-|
A-8-5-5-5-5--8--8-8—-10-8-8-8-|
D-8-5-5-5-5--8--8-8--10-8-8-8-|

VERSE
E-----------------------------------------|
B-----------------------------------------|
G-12-12-12-12-12-12-12-12-7-7-7-7-7-7-7-7-|
D-----------------------------------------|
A-10-10-10-10-10-10-10-10-5-5—5-5-5-5-5-5-|
D-----------------------------------------|
(Not exact amount)
Variation:

E-------------------------|
B-18-18-18-18-13-13-13-13-|
G-------------------------|
D-15-15-15-15-10-10-10-10-|
A------------------—------|
D-------------------------|

AFTER CHORUS
E-------------------|
B-------------------|
G-------------------|
D-5----7----2----0--|
A-5----7----2----0--|
D-5----7----2----0--|

Never the same...
E---------------------------------|
B---------------------------------|
G---------------------------------|
D-5-5-5-5-7-7-7-7-2-2-2-2-0-0-0-0-|
A-5-5-5-5-7-7-7-7-2-2-2-2-0—0-0-0-|
D-5-5-5-5-7-7-7-7-2-2-2-2-0-0-0-0-|
(16 of each note)
4. ...And She told Me To Leave
Drop C tuning (drop D, all down one step)

Riff 1 (played clean with tremolo)

-------------------------------------|
---3-------3---3---------------------|
-----0---0---------------------------|
-2-----4-----0-----------------------|
-------------------------------------|
-------------------------------------|

Riff 2         after a while this comes in
--------------|--------------------------|
-3-3-3-3-3-3--|--------------------------|
-x-x-x-x-x-x--|-7-7-7-*4-*5--------------|
-5-5-5-5-5-5--|-5-5-5--------------------|
-2-2-2-3-3-3--|-5-5-5--------------------|
-2-2-2--------|-5-5-5--------------------|

Between Riff 2 and 3 this is played
------------------------------|
------------------------------|
---7-7------------------------|
-5-5-7------------------------|
-3---5------------------------|
------------------------------|

Riff 3- Guitar 1
----------------------------------------------------|
----------------------------------------------------|
-------------------------------------------5--------|
---------------------------------------5-5-5-5-5-5--|
---------------------------------------3-3-3-3-3-3--|
-2-2-0-2-0-2-0-2-4-2--2-2-0-2-0-2-4-2--5-4---5-4-0--|

Riff 3- Guitar 2 (repeat first line as needed)
-12----------------12----------------10----------|
----12-10-12-13-12----12-10-12-13-12----12-13-12-|
-------------------------------------------------|
-------------------------------------------------|
-------------------------------------------------|
-------------------------------------------------|

-------------------------------------|
-13-12-13-12-15-12-13-12-15-12-13-12-|
-------------------------------------|
-------------------------------------|
-------------------------------------|
-------------------------------------|

Riff 4 (play each 5 times)
-12-12-12-15-19----|-12-12-12-12-12---------------|
-12-10-13-17-17----|-12-10-13-15-13---------------|
-------------------|------------------------------|
-------------------|------------------------------|
-------------------|------------------------------|
-------------------|------------------------------|

5. Kobrakai
(drop D)

|--------19----19----19----19----20----19----19----19----19----20----17----|
|-----------17----17----17-------------------17----17----17----------------|
|--------------------------------------------------------------------------|
|--------------------------------------------------------------------------|
|--------------------------------------------------------------------------|
|--------------------------------------------------------------------------|

|--------15----15----15----15----------------------------------------------|
|-----------15----15----15----15-------------------------------------------|
|--------------------------------------------------------------------------|
|--------------------------------------------------------------------------|
|--------------------------------------------------------------------------|
|--------------------------------------------------------------------------|

Intro guitar 1 Riff 1 end variation. Play this to complete intro Riff 1.

|--------19----19----19----19----20----19----19----19----19----20----17----|
|-----------17----17----17-------------------17----17----17----------------|
|--------------------------------------------------------------------------|
|--------------------------------------------------------------------------|
|--------------------------------------------------------------------------|
|--------------------------------------------------------------------------|

|--------15----15----19----15----------------------------------------------|
|-----------15----15----15----15-------------------------------------------|
|--------------------------------------------------------------------------|
|--------------------------------------------------------------------------|
|--------------------------------------------------------------------------|
|--------------------------------------------------------------------------|

Intro guitar 2 Riff 1
With heavy distortion.

|--------------------------------------------------------------------------|
|--------------------------------------------------------------------------|
|--------------------------------------------------------------------------|
|--------2--------2--2--3----2--------2--2--2----2--------2--2--2----2-----|
|--------2--------2--2--2----2--------2--2--2----2--------2--2--2----2-----|
|--------2--------2--2--2----2--------2--2--2----2--------2--2--2----2-----|

P.M. - - - - P.M. - - - - P.M. - - - - P.M. - - P.M. - - - -

|--------------------------------------------------------------------------|
|--------------------------------------------------------------------------|
|--------------------------------------------------------------------------|
|--------2--2--3----2--------2--2--3----2--------0--3--2-------------------|
|--------2--2--3----2--------2--2--3----2--------0--3--2-------------------|
|--------2--2--3----2--------2--2--3----2--------0--3--2-------------------|

P.M. - - - - P.M. - - - - P.M. - - - -

Intro guitar 1 Riff 2

With heavy distortion.

|--------19--19--19--19--20--19--19--19--19--19--20--19--17--17--17--17--1--|
|-----------17--17--17--17------------17--17--17--17------------15--15--15--|
|---------------------------------------------------------------------------|
|---------------------------------------------------------------------------|
|---------------------------------------------------------------------------|
|---------------------------------------------------------------------------|

|--------19--19--19--19--20--19--19--19--19--19--20--19--17--17--17--17--17-|
|-----------17--17--17--17------------17--17--17--17------------15--15--15--|
|---------------------------------------------------------------------------|
|---------------------------------------------------------------------------|
|---------------------------------------------------------------------------|
|---------------------------------------------------------------------------|


Intro guitar 2 Riff 2

With heavy distortion. Played 2 times.

|--------------------------------------------------------------------------|
|--------------------------------------------------------------------------|
|--------------------------------------------------------------------------|
|--------------------------------------------------------------------------|
|--------0--2----0--2----0--2------0--2------0--2--------0--2----0--2----0-|
|--------0--2----0--2----0--2------0--2------0--2--------0--2----0--2----0-|

H.O. H.O. H.O. B.U. H.O. B.U. H.O. H.O. H.O. H.O. H.O. B.U. H.O.

|--------------------------------------------------------------------------|
|--------------------------------------------------------------------------|
|--------------------------------------------------------------------------|
|--------------------------------------------------------------------------|
|--------0--2----0--2----0--2------0--2------0--2--------0--2----0--2----0-|
|--------0--2----0--2----0--2------0--2------0--2--------0--2----0--2----0-|

H.O. H.O. H.O. B.U. H.O. B.U. H.O. H.O. H.O. H.O. H.O. B.U. H.O.


Neck and bridge pickups with clean tone.

|---------------10----10-----------12-----------15----12----10--------12---|
|--------12------------------12-----------12-------------------12----------|
|-------12----------------------------12-9---------------------------------|
|--------------------------------------------------------------------------|
|--------------------------------------------------------------------------|
|--------------------------------------------------------------------------|

|----------------------------------------------10----10-----------12-------|
|------------------------------------12---------------------12-------------|
|---------9--10--9----9—12----12-------------------------------------------|
|--------------------------------------------------------------------------|
|--------------------------------------------------------------------------|
|--------------------------------------------------------------------------|

|--------12----13--15----13----12-------------------------------------------|
|------------------S.U.------------------13----------------------------12---|
|----------------------------------------------12----9----10--12----12------|
|--------------------------------------------------------------S.U.---------|
|---------------------------------------------------------------------------|
|---------------------------------------------------------------------------|

|--------12----10--------12--10----12--13----12-----------------------------|
|---------------12-----------P.O.--------S.U.-----------13------------------|
|---------------------------------------------------------------12----9-----|
|---------------------------------------------------------------------------|
|---------------------------------------------------------------------------|
|---------------------------------------------------------------------------|

|---------------12------------15----12----10----*10------------------------|
|--------12-----------12-------------------12----*12-----------------------|
|--------------------------------------------------------------------------|
|--------------------------------------------------------------------------|
|--------------------------------------------------------------------------|
|--------------------------------------------------------------------------|

*Let Ring

Verse break

With bridge pickup and clean tone.

|--------------------------------------------------------------------------|
|--------3--5----5----5--------3----3----3--5----5----5--------3----3----3-|
|--------H.O.--------------------------------------------------------------|
|--------------------------------------------------------------------------|
|--------------------------------------------------------------------------|
|--------------------------------------------------------------------------|

|---------------------------------------3----------------------------------|
|--------3----3----3--5----5----5-------------3--5----5----5--------3----3-|
|-------------------H.O.---------------------------------------------------|
|--------------------------------------------------------------------------|
|--------------------------------------------------------------------------|
|--------------------------------------------------------------------------|

|--------------------------------------------------------------------------|
|--------3----3----3--5----5----5--------3----3----3--5----5----5----------|
|--------------------------------------------------------------------------|
|--------------------------------------------------------------------------|
|--------------------------------------------------------------------------|
|--------------------------------------------------------------------------|

|--------------------------------------------------------------------------|
|--------3----3----3—5----5----5--------3--5----5------3--5----5------3---|
|----------------------------------------4--4--4--4------------------------|
|--------------------------------------------------------------------------|
|--------------------------------------------------------------------------|
|--------------------------------------------------------------------------|

Chorus

With heavy distortion.

|---------------------------------------------------------------------------|
|---------------------------------------------------------------------------|
|---------------------------------------------------------------------------|
|---------------------------------------------------------------------------|
|--------0--2----0--2----0--2------0--2------0--2--------0--2----0--2-------|
|--------0--2----0--2----0--2------0--2------0--2--------0--2----0--2----0--|

H.O. H.O. H.O. B.U. H.O. B.U. H.O. H.O. H.O. H.O. H.O. B.U. H.O.

|---------------------------------------------------------------------------|
|---------------------------------------------------------------------------|
|---------------------------------------------------------------9-9-9-9-9---|
|---------------------------------------------------------------X-X-X-X-X---|
|--------0--2----0--2----0--2------0--2------0--2--------7-7-7-7-7-7-7-7-7--|
|--------0--2----0--2----0--2------0--2------0--2---------------------------|

H.O. H.O. H.O. B.U. H.O. B.U. H.O. *Use strict up and down strokes for this
|--------------------------------------------------------------------------|
|--------------------------------------------------------------------------|
|--------7-7-7-7-7-7-7-7---------------------------------------------------|
|--------X-X-X-X-X-X-X-----------------------------------------------------|
|-S.D.--5-5-5-5-5-5-5-5--------0--2----0--2----0--2------0--2------0--2----|
|------------------------------------0--2----0--2----0--2------0--2------0-|

- - - - - - - - - - - - - - - - - - - - H.O. H.O. H.O. B.U. H.O. B.U. H.O.

|---------------------------------------------------------------------------|
|---------------------------------------------------------------------------|
|---------------------------------------------------------------------------|
|---------------------------------------------------------------------------|
|--------0--2----0--2----0--2----0--2------0--2--------0--2----0--2----0----|
|--------0--2----0--2----0--2----0--2------0--2--------0--2----0--2----0----|

H.O. H.O. H.O. H.O. B.U. H.O. H.O. H.O. H.O. B.U. H.O. B.U. H.O.

|--------------------------------------------------------------------------|
|--------------------------------------------------------------------------|
|--------9-9-9-9-9-9-9-9-9-9-9-9-9-9-9-9----7-7-7-7-7-7-7-7----5-5-5-5-5-5-|
|--------X-X-X-X-X-X-X-X-X-X-X-X-X-X-----X-X-X-X-X-X-X----X-X-X-X-X-X-X----|
|--------7-7-7-7-7-7-7-7-7-7-7-7-7-7-7-7----5-5-5-5-5-5-5-5----5-5-5-5-5-5-|
|--------------------------------------------------S.D.--------------------|
*Use strict up and down strokes for this
|--------------------------------------------------------------------------|
|--------------------------------------------------------------------------|
|--------------------------------------------------------------------------|
|--------------------------------------------------------------------------|
|--------0--2----0--2----0--2------0--2------0--2--------0--2----0--2----0-|
|--------0--2----0--2----0--2------0--2------0--2--------0--2----0--2----0-|

H.O. H.O. H.O. B.U. H.O. B.U. H.O. H.O. H.O. H.O. H.O. B.U. H.O.

|--------------------------------------------------------------------------|
|--------------------------------------------------------------------------|
|------------------------------------------------------9-9-9-9-9-9-9-9-9-9-|
|------------------------------------------------------X-X-X-X-X-X-X-X-X-X-|
|-------0--2----0--2----0--2------0--2------0--2-------7-7-7-7-7-7-7-7-7-7-|
|-------0--2----0--2----0--2------0--2------0--2---------------------------|

*Use strict up and down strokes for this - - - - - - - - - - - - - - - - - -

|----------------------------------------------------------|
|----------------------------------------------------------|
|--------11-11-11-11-11-11-11-11---12-12-12-12-12-12-12-12-|
|--------X--X--X--X--X--X--X--X-----X--X--X--X--X—-X--X--X-|
|--------9--9--9--9--9--9--9--9----10-10-10-10-10-10-10-10-|
|----------------------------------------------------------|
Then play the first section of intro.

Then play the verse section and break.

Then play the chorus.

Then guitar 1 plays the first intro.


6. The Handsome Life of Swing

D|-------17-----------17\15-------------15/17---------------------|
A|-------15-----------15\13-------------13/15---------------------|
F|-------14-----------14\12-------------12/14---------------------|
C|----------------------------------------------------------------|
G|----------------------------------------------------------------|
C|----------------------------------------------------------------|


Then at 00:23 the picking changes to single notes played v. fast.
When i saw this live, both times, Guitar 1 (Lee) plays something
like this by placing 1 finger down on the fret, playing the note
an then lifting the finger off so the note doesnt ring out.
He then moves onto the next note:

(FX are still the same as before)
This isnt 100% but it sounds like what was played live an kinda
fits.
D|--17--------17-------17-------15-------15---------------17------|
A|----15--------15-------15-------13-------13------13-------15----|
F|------14--------14----------------12-------12--12-----------14--|
C|----------------------------------------------------------------|
G|----------------------------------------------------------------|
C|----------------------------------------------------------------|

D|-17-------17-------15-------15------15----17-------17-------17--|
A|---15-------15-------13-------13--13--------15-------15-------15|
F|-----14----------------12-------12------------14-------14-------|
C|----------------------------------------------------------------|
G|----------------------------------------------------------------|
C|----------------------------------------------------------------|

D|15------15-------------17------17------17-----15------15------15|
A|--13------13------13-----15------15------15-----13------13--13--|
F|----12------12--12---------14------14-------------12------12----|
C|----------------------------------------------------------------|
G|----------------------------------------------------------------|
C|----------------------------------------------------------------|


Guitar 2: comes in @ end of 00:04 			x4
         (Mute after each section to stop ringing)
D|----------------------------------------------------------------|
A|----------------------------------------------------------------|
F|----------------------------------------------------------------|
C|--0-0-0-0--------0-0-0-0--------0-0-0-0--------0-0-0-0----------|
G|--0-0-0-0--------0-0-0-0--------0-0-0-0--------0-0-0-0----------|
C|--0-0-0-0--------0-0-0-0--------0-0-0-0--------0-0-0-0----------|

\"Point your finger...\"
Guitar 1 slows down so each note can be heard but it is still fast

Guitar 2 plays this (below) after 4th repeat of above riff @ 00:24
D|----------------------------------------------------------------|
A|----------------------------------------------------------------|
F|----------------------------------------------------------------|
C|--0-0--------5-5-5-5-------1-1-0-0-0-0------0-0------6-6-6-6----|
G|--0-0--------5-5-5-5-------1-1-0-0-0-0------0-0------6-6-6-6----|
C|--0-0--------5-5-5-5-------1-1-0-0-0-0------0-0------6-6-6-6----|
(Mute after each section to stop ringing)

D|----------------------------------------------------------------|
A|----------------------------------------------------------------|
F|----------------------------------------------------------------|
C|--1-1-0-0-0-0------0-0---------5-5-5-5--------1-1-0-0-----------|
G|--1-1-0-0-0-0------0-0---------5-5-5-5--------1-1-0-0-----------|
C|--1-1-0-0-0-0------0-0---------5-5-5-5--------1-1-0-0-----------|
(Mute after each section to stop ringing)


Both Guitars: @ end Of 00:41
(\"Here inside, won\'t be here to stay...\")
Verse (with chorus effect + maybe some flange)
D|--3--------3--------3--3-------3--------3--3-----------3--------|
A|--3--------3--------3--3--3----3--------3--3--3--------3--------|
F|--0--------0--------0--0-------0--------0--0-----------0--------|
C|--5--------2--------5----------2--------5--------------2--------|
G|--6--------3--------6----------3--------6--------------3--------|
C|----------------------------------------------------------------|

D|--3--3-----------3-------|
A|--3--3--3--------3-------|
F|--0--0-----------0-------|
C|--5--------------2-------|
G|--6--------------3-------|
C|-------------------------|

Then repeat Intro and verse once more following the same timing.
The only difference is that guitar 2 comes in with guitar 1
imediately after verse (above).


Guitar 1:
Plays this over the 2nd repeat of the verse while guitar 2 plays
the normal verse
(with chorus effect + clean tone + a slight echo)
D|----------------------------------------------------------------|
A|----------------------------------------------------------------|
F|--12/14--14\12--------------------------------------------------|
C|----------------12--10--12----12/15--14--12--------------9/12---|
G|--------------------------------------------15--12--10----------|
C|----------------------------------------------------------------|

D|------------------------------------------17--15-13-12--12/13~--|
A|-----------15-15----13---15/17---15---13------------------------|
F|--10-------------14---14----------------------------------------|
C|-----10--12-----------------------------------------------------|
G|----------------------------------------------------------------|
C|----------------------------------------------------------------|
The 12/13 on D string is silent/very quick

Then Both Guitars: (\"But hey...\" part)
(with heavy distortion + chorus)
D|----------------------------------------------------------------|
A|---------------------------------8-8-----8-----8-----8-----8----|
F|---------------------------------7-7-----7-----7-----7-----7----|
C|0-0-0-0-0-0-0-0-0-0-0-0-0-0-0-0--5-5-----5-----5-----5-----5----|
G|0-0-0-0-0-0-0-0-0-0-0-0-0-0-0-0--5-5-----5-----5-----5-----5----|
C|0-0-0-0-0-0-0-0-0-0-0-0-0-0-0-0--5-5-----5-----5-----5-----5----|
				  (Mute after each one to stop ringing)

								 x2
D|----------------------------------------------------------------|
A|-8-8-8-----8-8-----8-----8-----8-----8-----8-8-8----------------|
F|-7-7-7-----7-7-----7-----7-----7-----7-----7-7-7----------------|
C|-5-5-5-----5-5-----5-----5-----5-----5-----5-5-5----------------|
G|-5-5-5-----5-5-----5-----5-----5-----5-----5-5-5----------------|
C|-5-5-5-----5-5-----5-----5-----5-----5-----5-5-5----------------|
	(Mute after each one to stop ringing)

Guitar 2 continues this riff while Guitar 1 plays this over it:
(distortion an mayb a wah or sustain - something to make the notes
 ring - i just hold them so they ring + the slides are optional as
 they too make the sound more \'whiney\')
D|----------------------------------------------------------------|
A|--------------------------------------------------------11------|
F|-/14--10--12--/14--10--12--/14--10--12--/14-10--12----12------12|
C|----------------------------------------------------12------12--|
G|----------------------------------------------------------------|
C|----------------------------------------------------------------|

D|----------------------------------------------------------------|
A|10-----10------11--------------------------/13--------/10-------|
F|-----12------12---/14--10--12--/14--10-12------10--12-----10--12|
C|---12------12---------------------------------------------------|
G|----------------------------------------------------------------|
C|----------------------------------------------------------------|

D|----------------------------------------------------------------|
A|-----11-----10-----10-----11~-----------------------------------|
F|---12-----12-----12-----12--------------------------------------|
C|-12-----12-----12-----12----------------------------------------|
G|----------------------------------------------------------------|
C|----------------------------------------------------------------|
			      | Let last note ring|

At UK Ozzfest, the guitar 1 (Lee) began the overlay in this way:
(distortion + chorus, again slides are optional)
D|----------------------------------------------------------------|
A|----------------------------------------------------------------|
F|-/10-10--12--14---/10--12--14---/10--12--14---/10-12------------|
C|----------------------------------------------------------------|
G|----------------------------------------------------------------|
C|----------------------------------------------------------------|
Then after the 12,12,11 on the C,F and A strings, the overlay goes
back to normal starting with the 14 on the F and not the 12.

The live ending to the song played at all shows is this:
(Normally has a flange effect on over the distortion)
D|----------------------------------------------------------------|
A|-----10--10h11--10--11/13~--------------------------------------|
F|--12------------------------------------------------------------|
C|----------------------------------------------------------------|
G|----------------------------------------------------------------|
C|----------------------------------------------------------------|
			  | Let the slide ring |


On the album, the interlude after it is this (this took a while to
figure out):
(Chorus effect maybe w/ slight flange to create a watery sound
after each note so it rings better)
D|-----0---------0-----------0---------0-----------0---------0----|
A|---------0---------0-----------0---------0-----------0---------0|
F|-------2---------2-----------2---------2-----------2---------2--|
C|----------------------------------------------------------------|
G|-0----------0-----------3---------3-----------0---------0-------|
C|----------------------------------------------------------------|

D|-----0-----------0-----------0-----------0-----------0----------|
A|---------0-----------0-----------0-----------0-----------0------|
F|-------2-----------2-----------2-----------2-----------2--------|
C|----------------------------------------------------------------|
G|-3-----------3--------------------------------------------------|
C|-------------------------3-----------3-----------0-----------0--|

D|-0-------------0-----------0-----------0-----------0-----------0|
A|-----0-------------0-----------0-----------0-----------0--------|
F|---2-----2-------2-----------2-----------2-----------2----------|
C|----------------------------------------------------------------|
G|-----------0-----------0-----------3-----------3----------------|
C|-----------------------------------------------------------3----|

D|-----------0-----------0-----------0----------------------------|
A|---0-----------0-----------0-----------0------------------------|
F|-2-----------2-----------2-----------2----2---------------------|
C|----------------------------------------------------------------|
G|----------------------------------------------------------------|
C|-------3-----------0-----------0--------------------------------|

Tune repeats and then fades out

7. A Thousand Apologies

M... = palm mute
^     = bend
/     = slide
p     = pull off
h     = hammer on
x     = mute

Intro - Lee [0:00]
D-|-----------------------------------------------------------------------------|
A-|-----------------------------------------------------------------------------|
F-|-----------------------------------------------------------------------------|
C-|--------5--------------------------------------------------------------------|
G-|--------5--------------------------------------------------------------------|
C-|-2p1-1-----1-1h2p1-----------------------------------------------------------|

D-|-----------------------------------------------------------------------------|
A-|-----------------------------------------------------------------------------|
F-|-----------------------------------------------------------------------------|
C-|----------5------------------------------------------------------------------|
G-|----------4------------------------------------------------------------------|
C-|-1-2p1-1----1-1h2p1-1--------------------------------------------------------|

Intro 2 - Lee & Mike [0:04]
D-|-----------------------------------------------------------------------------|
A-|-----------------------------------------------------------------------------|
F-|-----------------------------------------------------------------------------|
C-|--------5--------------------------------------------------------------------|
G-|-2p1-1--5--1-1h2p1-----------------------------------------------------------|
C-|-2p1-1--0--1-1h2p1-----------------------------------------------------------|

D-|-----------------------------------------------------------------------------|
A-|-----------------------------------------------------------------------------|
F-|-----------------------------------------------------------------------------|
C-|----------5------------------------------------------------------------------|
G-|-1-2p1-1--4--1-1h2p1-1-------------------------------------------------------|
C-|-1-2p1-1--0--1-1h2p1-1-------------------------------------------------------|

Intro 3 - Lee & Mike [0:20]
D-|-----------------------------------------------------------------------------|
A-|-----------------------------------------------------------------------------|
F-|-------4-----------8-----11--11/---------------------------------------------|
C-|-2-----2-----4-----8------9---9/-Slide Down Fretboard------------------------|
G-|-2-----------4-----6------9---9/---------------------------------------------|
C-|-2-----------4---------------------------------------------------------------|

Intro 3 Cont'd - Lee & Mike [0:27]
D-|-----------------------------------------------------------------------------|
A-|-----------------------------------------------------------------------------|
F-|-------4-----------8------6--------------------------------------------------|
C-|-2-----2-----4-----8------6--------------------------------------------------|
G-|-2-----------4-----6------4--------------------------------------------------|
C-|-2-----------4---------------------------------------------------------------|

Fill - Lee & Mike [0:35] [01:40]
D-|-----------------------------------------------------------------------------|
A-|-----------------------------------------------------------------------------|
F-|-----------------------------------------------------------------------------|
C-|-0~--------------------------------------------------------------------------|
G-|-0~--------------------------------------------------------------------------|
C-|-0~--------------------------------------------------------------------------|

Verse - Mike [0:39] [01:44] "Supreme, funds come my way"
D-|-----------------------------------------------------------------------------|
A-|-----------------------------------------------------------------------------|
F-|-----------------------------------------------------------------------------|
C-|-----------------------------------------------------------------------------|
G-|---7-5-----7-5---7-3-----7-3-------------------------------------------------|
C-|-0-----0-0-----0-----0-0-----------------------------------------------------|

D-|-----------------------------------------------------------------------------|
A-|-----------------------------------------------------------------------------|
F-|-----------------------------------------------------------------------------|
C-|-----------------------------------------------------------------------------|
G-|---7-5-----7-5---7-3-----7-3-------------------------------------------------|
C-|-3-----3-3-----3-----3-3-----------------------------------------------------|

Verse - Lee [0:39] [01:44] "Supreme, funds come my way"
D-|-----------------------------------------------------------------------------|
A-|-----------------------------------------------------------------------------|
F-|-----------------------------------------------------------------------------|
C-|---------------------3----3----3----3----------------------------------------|
G-|-0----0----0----0----1----1----1----1----------------------------------------|
C-|-0----0----0----0------------------------------------------------------------|

Pre-Chorus - Mike & Lee [01:10] [02:17] "And you're all very proud"
D-|-----------------------------------------------------------------------------|
A-|-----------------------------------------------------------------------------|
F-|-------------------------10-10-10--------------------------------------------|
C-|-------------------------10-10-10-10-10-10-----------------------------------|
G-|-5---5---5---7---7---7----8--8--8--8--8--8-----------------------------------|
C-|---0---0---0---0---0---0-----------8--8--8-----------------------------------|

Pre-Chorus Cont'd - Mike [01:17] [02:23] "And I feel, so real"
D-|-----------------------------------------------------------------------------|
A-|-----------------------------------------------------------------------------|
F-|-----------------------------------------------------------------------------|
C-|-------------------------10-10-10-10-10-10-----------------------------------|
G-|-5---5---5---3---3---3----8--8--8--8--8--8-----------------------------------|
C-|---0---0---0---0---0---0--8--8--8--8--8--8-----------------------------------|

Pre-Chorus Cont'd - Lee [01:17] [02:23] "And I feel, so real"
D-|------------------------------------888--666--555----------------------------|
A-|------------------------------------xxx--xxx--xxx----------------------------|
F-|-------------------------3-3-3------555--333--222----------------------------|
C-|-------------------------3-3-3-----------------------------------------------|
G-|-5---5---5---3---3---3---1-1-1-----------------------------------------------|
C-|---0---0---0---0---0---0-----------------------------------------------------|

Chorus - Lee Only [01:25] [02:30] "Have I ever asked for more?"
D-|-------------------------------5-6-5-6-5-6-5---5-6-6--5-5-5------------------|
A-|-------------------------------x-x-x-x-x-x-x---x-x-x--x-x-x------------------|
F-|-------------------------------7-7-7-7-7-7-7---7-7-7--7-7-7------------------|
C-|-5-5-5-5--5--5--5-5-5-5--5--5--7-7-7-7-7-7-7---7-7-7--7-7-7------------------|
G-|-3-3-3-3--3--3--2-2-2-2--2--2--5-5-5-5-5-5-5---5-5-5--5-5-5------------------|
C-|-----------------------------------------------------------------------------|

Bridge - Lee & Mike [02:45] "Can't you stick out your face"
D-|-------------------------------------------------------------------|-End on--|
A-|-------------------------------------------------------------------|--last---|
F-|-------------------------------------------------------------------|--time---|
C-|-555-555-555-555-555-999-999-77-10-10-10-10-10-10-10-10-10-10--9-9-|-12-12---|
G-|-333-333-333-333-333-777-777-55--8--8--8--8--8--8--8--8--8--8--7-7-|-10-10---|
C-|-------------------------------------------------------------------|---------|

Bridge 2 - Lee & Mike [03:00] "I know it's all in there"
D-|-----------------------------------------------------------------------------|
A-|-----------------------------------------------------------------------------|
F-|-----------------------------------------------------------------------------|
C-|-----------------------------------------------------------------------------|
G-|-2-1-1-1-2-1-1-1-2-1-1-2-1-1-------------------------------------------------|
C-|-2-1-1-1-2-1-1-1-2-1-1-2-1-1-------------------------------------------------|
PM  . . . . . . . . . . . . . .

Bridge 3 - Lee & Mike [03:14] "I can't see that far"
D-|---------------------------------|-------------------------------------------|
A-|---------------------------------|-------------------------------------------|
F-|---------------------------------|-------------------------------------------|
C-|---------------------------------|-------------------------------------------|
G-|-2-1-1-4^-1-2-1-2-1-1-4^-1-(x2)--|-0-End on second time----------------------|
C-|-2-1-1----1-2-1-2-1-1----1-------|-0-----------------------------------------|

Bridge 4 - Lee & Mike [03:29]
D-|-----------------------------------------------------------------------------|
A-|-----------------------------------------------------------------------------|
F-|-----------------------------------------------------------------------------|
C-|-2-0-1-----------------------------------------------------------------------|
G-|-2-0-1-----------------------------------------------------------------------|
C-|-2-0-1-----------------------------------------------------------------------|

Bridge 4 Cont'd - Lee
  |1st time | 2nd time | 3rd time | 4th time
D-|---------|----------|----------|---------------------------------------------|
A-|---------|----------|----------|---------------------------------------------|
F-|-12------|-7--------|-12-------|-6-------------------------------------------|
C-|--x------|-x--------|--x-------|-x-------------------------------------------|
G-|-10------|-5--------|-10-------|-4-------------------------------------------|
C-|---------|----------|----------|---------------------------------------------|

Bridge 4 - Lee & Mike [03:33] "Ultimatum time now"
D-|-----------------------------------------------------------------------------|
A-|-----------------------------------------------------------------------------|
F-|-----------------------------------------------------------------------------|
C-|-----------------------------------------------------------------------------|
G-|-2--2--2--2--2-2-------------------------------------------------------------|
C-|-2--2--2--2--2-2-------------------------------------------------------------|
PM  .  .  .  .  . .

8. Still Laughing

Intro:

1:---------------------3--------------------------------------------|
2:--3------3-----6-----------6\-------------------------------------|
3:-------------------------------------3-----3-------5-----0-----0--|
4:------------------------------------------------------------------|  Guitar 1
5:--5---5-----5-----5-----5---------5-----5-------5-----5-----5-----|   (0:00)
6:------------------------------------------------------------------|

1:-------------------------------------|
2:---------10--------------------------|
3:--7----------10---------------9------|  Guitar 2
4:----------------------7----------10--|   (0:10)
5:-------------------------------------|
6:-------------------------------------|

Verse:

1:-----------------------------------------------|
2:--3------3-----5-----6--5--3-------------------|
3:--------------------------------3-----5-----0--|
4:-----------------------------------------------|  Guitar 1
5:--5---5-----5-----5-----5--5----5-----5-----5--|   (0:20)
6:-----------------------------------------------|

1:-------------------------------|
2:---------10--------------------|
3:--7-------------------------9--|
4:--------------------7----------|  Guitar 2
5:-------------------------------|   (0:20)
6:-------------------------------|

Chorus

1:-----5--------3--3------------5--------3------------5--------3---3-----3--|
2:-----5--------5-----5---------5--------5-----5------5--------5------5-----|
3:--7--7--------5--------5---7--7--------5--5------7--7--------5---5--------|
4:--7--7-----5--5------------7--7-----5--5---------7--7-----5--5------------|
5:--5--5-----5--3------------5--5-----5--3---------5--5-----5--3------------|
6:-----------5------------------------5---------------------5---------------|

------5--------3--|
------5--------5--|
---7--7--------5--| Guitar 1&2
---7--7-----5--5--|  (0:59)
---5--5-----5--3--|
------------5-----|

Then Intro, Verse and Chours

Bridge:

1:------------------------------------------|
2:------------------------------------------|
3:--5-------------5-------------5-----4-----|
4:-----3---3--3------3---3?-3------3-----3--| Guitar 1
5:------------------------------------------|  (2:26)
6:------------------------------------------|

1:------------------------------------------|
2:------------------------------------------|
3:--5-------------5-------------5-----4-----|
4:-----2---2--2------2---2?-2------2-----2--| Guitar 1
5:------------------------------------------|  (2:29)
6:------------------------------------------|

1:------------------------------------------|
2:------------------------------------------|
3:--5--2---2--2---5--2---2--2---5--2--4--2--|
4:------------------------?-----------------| Guitar 1
5:------------------------------------------|  (2:31)
6:------------------------------------------|

1:------------------------------------------|
2:------------------------------------------|
3:--5--2---2--2---5--2---2--2---5--2--4--2--|
4:------------------------?-----------------| Guitar 1
5:------------------------------------------|  (2:34)
6:------------------------------------------|

Then the second guitar comes in with chords:

1:----------------------------------|
2:----------------------------------|
3:--5----5--7----7--9----9--9----9--|
4:--3----3--5----5--7----7--7----7--| Guitar 2
5:--3----3--5----5--7----7--7----7--|  (2:46)
6:--3----3--5----5--7----7--7----7--|

Then this:

                                     Ending 1
1:--------------------------------|-------------|
2:--------------------------------|-------------|
3:--5---5--5--4---4--4--5---5--5?-|--2---4---5--|
4:--------------------------------|-------------| Guitar 1
5:--------------------------------|-------------|  (3:06)
6:--------------------------------|-------------|

         Ending 2
1:--------------------------|
2:--------------------------|
3:--5--2--4--0--2--4--5--7--|  (3:23)
4:--------------------------|
5:--------------------------|
6:--------------------------|

Then again the first part of the bridge with chords

Then outro w/same chords than in the bridge:

1:--------------------------|
2:--------------------------|
3:--5--4--7--4--5--4--7--4--|  (3:45)
4:--------------------------|
5:--------------------------|
6:--------------------------|

Sometimes you play it like this:

1:--------7-----------7-----|
2:--------------------------|
3:--5--4-----4--5--4-----4--|
4:--------------------------|
5:--------------------------|
6:--------------------------|

End:

1:-----|
2:-----|
3:--7--|
4:--5--|
5:--5--|
6:--5--|

9. For Sure


NTRO + VERSE:

Guitar 1: (play fast)
(Clean + Chorus effet on)
D|---------------------------------------------------------|
A|--------10--------------------10--------------------10---|
F|---10--------10---10----10----------10----10---10--------|
C|-8----8----8----8----------------------------0----0----0-|
G|---------------------10----10----10----10----------------|
C|---------------------------------------------------------|

D|---------------------------------------------------------|
A|-----8--------11------------------10---------------------|
F|10-------10--------10---10---10--------10---10----10-----|
C|---0---0----0----0----0----8----8----8----8--------------|
G|-----------------------------------------------10----10--|
C|---------------------------------------------------------|

							  x3
D|---------------------------------------------------------|
A|10--------------------10--------8--------8---------------|
F|------10----10---10--------10-------10-------10---10-----|
C|---------------0----0----0----0---0----0---0----0--------|
G|---10----10----------------------------------------------|
C|---------------------------------------------------------|

End with this:
D|---------------------------------------------------------|
A|--------10---10---10----10----10----10-------------------|
F|---10----------------10----10----10----10----------------|
C|-0----0----0----0----------------------------------------|
G|---------------------------------------------------------|
C|---------------------------------------------------------|

Alternatively, live, Guitar 1 (Lee) plays this instead of
the first and third repeats of the riff above to replace
the 10, 8, 8 section played on the A string:
D|---------------------------------------------------------|
A|--------10--------8--------------------------------------|
F|---10--------10-------10---9---10------------------------|
C|-0----0----0----0---0----0---0---------------------------|
G|---------------------------------------------------------|
C|---------------------------------------------------------|


Guitar 2: comes in after 1st repeat of Guitar 1 (Slight Distortion,
	  is heavy and not palm muted when the harmonics end)

  Palm muted with quick downstrokes
D|---------------------------------------------------------|
A|---------------------------------------------------------|
F|---------------------------------------------------------|
C|--8-8-8-8-8-8-8-8--10-10-10-10-10-10-10-10--12--5-5-5-5-5|
G|--8-8-8-8-8-8-8-8--10-10-10-10-10-10-10-10--12--5-5-5-5-5|
C|--8-8-8-8-8-8-8-8--10-10-10-10-10-10-10-10--12--5-5-5-5-5|

	      On the 6th repeat, when live, guitar 2 puts in
	x5    some harmonics (*) starting at the 5th fret:
D|-------|-------------------------------------------------|
A|-------|-------------------7*-7*-10-10-10-10-10-10-10-10-|
F|-------|-------5*-5*-7*-7*-7*-7*-10-10-10-10-10-10-10-10-|
C|-5-5-5-|-5*-5*-5*-5*-7*-7*-7*-7*-8--8--8--8--8--8--8--8--|
G|-5-5-5-|-5*-5*-5*-5*-7*-7*-7*-7*-8--8--8--8--8--8--8--8--|
C|-5-5-5-|-5*-5*-5*-5*-------------------------------------|


VERSE (Heavy Part):
Both Guitars: (Heavy Distortion)

      x10     x7		 x10     x7
D|------|------|------------|------|------|----------------|
A|--10--|--10--|--10-10-10--|--10--|--10--|--10-10-10------|
F|--10--|--10--|--10-10-10--|--10--|--10--|--10-10-10------|
C|--8---|--0---|--8--8--8---|--8---|--0---|--8--8--8-------|
G|--8---|--0---|--0--0--0---|--8---|--0---|--10-10-10------|
C|------|------|------------|------|------|----------------|

      x10     x7
D|------|------|-------------------------------------------|
A|--10--|--10--|--10-10-10---------------------------------|
F|--10--|--10--|--10-10-10---------------------------------|
C|--8---|--0---|--8--8--8----------------------------------|
G|--8---|--0---|--10-10-10---------------------------------|
C|------|------|-------------------------------------------|

If you don't like that then you could always follow the intro
structure, however the sound difference isn't great due to the
distortion, but it matches the cd better:

Play this 3 times.
       x4     x6
D|------|------|-------------------------------------------|
A|--10--|--10--|--10-10-10-10-X-10-10-10-10-X-10-10-10-----|
F|--10--|--10--|--10-10-10-10-X-10-10-10-10-X-10-10-10-----|
C|--8---|--X---|--0--0--0--0--X-0--0--0--0--X-0--0--0------|
G|------|--10--|-(0)(0)(0)(0)-X(0)(0)(0)(0)-X(0)(0)(0)-----|
C|------|------|-------------------------------------------|

Ideally you could split this up so 1 guitar does one version an
the other does the one above.


VERSE ENDING:

Guitar 1: (Slight Distortion)

D|-8--8/10--10-10-10-10--10\8--8-8-8-8--8/10--10-10-10-10--|
A|-6--6/8----8--8--8--8---8\6--6-6-6-6--6/8----8--8--8--8--|
F|-7--7/9----9--9--9--9---9\7--7-7-7-7--7/9----9--9--9--9--|
C|---------------------------------------------------------|
G|---------------------------------------------------------|
C|---------------------------------------------------------|

D|-10\8--8-8-8-8--8/10--10-10-10-10--10\8--8--8/10--10~----|
A|--8\6--6-6-6-6--6/8---8--8--8--8----8\6--6--6/8---8~-----|
F|--9\7--7-7-7-7--7/9---9--9--9--9----9\7--7--7/9---9~-----|
C|---------------------------------------------------------|
G|---------------------------------------------------------|
C|---------------------------------------------------------|

Guitar 2: (Slight Distortion)
D|---------------------------------------------------------|
A|-13--13/15--15-15-15-15--15\13--13-13-13-13--13/15--15-15|
F|-10--10/12--12-12-12-12--12\10--10-10-10-10--10/12--12-12|
C|-12--12/14--14-14-14-14--14\12--12-12-12-12--12/14--14-14|
G|---------------------------------------------------------|
C|---------------------------------------------------------|

D|---------------------------------------------------------|
A|-15-15--15/13--13-13-13-13--13/15--15-15-15-15--15\13--13|
F|-12-12--12/10--10-10-10-10--10/12--12-12-12-12--12\10--10|
C|-14-14--14/12--12-12-12-12--12/14--14-14-14-14--14\14--14|
G|---------------------------------------------------------|
C|---------------------------------------------------------|

D|---------------------------------------------------------|
A|--13/15--15~---------------------------------------------|
F|--10/12--12~---------------------------------------------|
C|--12/14--14~---------------------------------------------|
G|---------------------------------------------------------|
C|---------------------------------------------------------|

Both guitars could stick to their parts or again they could
harmonize.

PRE-CHORUS:

Guitar 1: with slightly dirty chorus effect
D|--8~-----5--5------5-------8~-------5~-------------------|
A|--6~-----3--3------3-------6~-------3~-------------------|
F|--7~-----5--5------5-------7~-------5~-------------------|
C|---------------------------------------------------------|
G|---------------------------------------------------------|
C|---------------------------------------------------------|

Guitar 2: with slightly dirty chorus effect
D|--13~-----10--10-----10-------13~-------10~--------------|
A|--10~-----7---7------7--------10~-------7~---------------|
F|--12~-----10--10-----10-------12~-------10~--------------|
C|---------------------------------------------------------|
G|---------------------------------------------------------|
C|---------------------------------------------------------|


CHORUS:

Both Guitars:						  x4
D|---------------------------------------------------------|
A|---------------------------------------------------------|
F|---------------------------------------------------------|
C|-8~-----------10~----------0~----------------------------|
G|-8~-----------10~----------0~----------------------------|
C|-8~-----------10~----------0~----------------------------|


Guitar 1: plays this while Guitar 2 repeats riff above x4.
D|---------------------------------------------------------|
A|--------10------------10---------------10---------10-----|
F|--7---------7-----7-------7----7----7--------7-----------|
C|----10--------10------------10---10------------10--------|
G|---------------------------------------------------------|
C|---------------------------------------------------------|


D|---------------------------------------------------------|
A|-----------10----------------11----------10------------10|
F|--7--------------7----7----7-------7----------7-----7----|
C|----10-10----------10---10-----------10---------10-------|
G|---------------------------------------------------------|
C|---------------------------------------------------------|


D|---------------------------------------------------------|
A|----------------10---------------------------------------|
F|---7----7----7-------------------------------------------|
C|-----10---10------------------------8-----10----0--------|
G|------------------------------------8-----10----0--------|
C|------------------------------------8-----10----0--------|


REPEAT VERSE, VERSE (Heavy Part), PRE-CHORUS and CHORUS again.


BRIDGE:

. = quickly down-pick chord then plam mute it immediately after.

Guitar 1: with chorus effect + slight delay/echo near end
D|--8~----5--5------5-------8~------5--5-----5-------8~----|
A|--6~----3--3------3-------6~------3--3-----3-------6~----|
F|--7~----5--5------5-------7~------5--5-----5-------7~----|
C|---------------------------------------------------------|
G|---------------------------------------------------------|
C|---------------------------------------------------------|

D|--5--5------5-------8~------5.--5.--5.--5.--5.--5.-------|
A|--3--3------3-------6~------3.--3.--3.--3.--3.--3.-------|
F|--5--5------5-------7~------5.--5.--5.--5.--5.--5.-------|
C|---------------------------------------------------------|
G|---------------------------------------------------------|
C|---------------------------------------------------------|

Guitar 2: with chorus effect + slight delay/echo near end
D|---------------------------------------------------------|
A|--13~---10--10------10------13~-----10--10-----10-----13~|
F|--10~---7---7-------7-------10~-----7---7------7------10~|
C|--12~---10--10------10------12~-----10--10-----10-----12~|
G|---------------------------------------------------------|
C|---------------------------------------------------------|

D|---------------------------------------------------------|
A|--10--10------10------13~----10.-10.-10.-10.-10.-10.-----|
F|--7---7-------7-------10~----7.--7.--7.--7.--7.--7.------|
C|--10--10------10------12~----10.-10.-10.-10.-10.-10.-----|
G|---------------------------------------------------------|
C|---------------------------------------------------------|


Both Guitars: Distortion (or, Guitar 1 could begin with 10p8
			  while Guitar 2 begins with 8, and they
			  alternate)

		     x4  Palm Mute all of these:
D|--------------------|------------------------------------|
A|--------------------|------------------------------------|
F|--------------------|------------------------------------|
C|--10p8-8-8---8-8-8--|--8--8-8---8--8-8---8--8-8---8--8-8-|
G|--10p8-8-8---8-8-8--|--8--8-8---8--8-8---8--8-8---8--8-8-|
C|--10p8-8-8---8-8-8--|--8--8-8---8--8-8---8--8-8---8--8-8-|


CHORUS is repeated.

Easier if I re-write the Guitar 1 overlay again:

Guitar 1: (Slight Distortion)
D|---------------------------------------------------------|
A|--------10------------10---------------10---------10-----|
F|--7---------7-----7-------7----7----7--------7-----------|
C|----10--------10------------10---10------------10--------|
G|---------------------------------------------------------|
C|---------------------------------------------------------|


D|---------------------------------------------------------|
A|-----------10----------------11----------10------------10|
F|--7--------------7----7----7-------7----------7-----7----|
C|----10-10----------10---10-----------10---------10-------|
G|---------------------------------------------------------|
C|---------------------------------------------------------|


D|---------------------------------------------------------|
A|----------------10--------10---------10---------------10-|
F|---7----7----7------7--------7-----7-----7----7----7-----|
C|-----10---10----------10-------10----------10---10-------|
G|---------------------------------------------------------|
C|---------------------------------------------------------|


D|---------------------------------------------------------|
A|---------------------------------------------------------|
F|---------------------------------------------------------|
C|-10-10/12-12-12-12-12/14-14-14-14-14/15-15-15-15-15\10-10|
G|---------------------------------------------------------|
C|---------------------------------------------------------|


D|----------------10------10------10------10---------------|
A|---------------------------------------------------------|
F|--------------7-------7-------7-------7------------------|
C|-10-10-10--10------10------10------10------10-10/12-12-12|
G|---------------------------------------------------------|
C|---------------------------------------------------------|


D|---------------------------------------------------------|
A|---------------------------------------------------------|
F|---------------------------------------------------------|
C|-12-12/14-14-14-14-14/15-15-15-15-15\10-10-10-10-10--8~--|
G|-----------------------------------------------------8~--|
C|-----------------------------------------------------8~--|


D|---------------------------------------------------------|
A|---------------------------------------------------------|
F|---------------------------------------------------------|
C|--10~-----0~---------------------------------------------|
G|--10~-----0~---------------------------------------------|
C|--10~-----0~---------------------------------------------|

10. Awkward

Intro 1 (a few times)
e|-------------------------------------------------------|
B|-------------------------------------------------------|
G|-------------------------------------------------------|
D|-------------------------------------------------------|
A|-------------------------------------------------------|
E|8-8-8-8-9-8-8-8-8-9-8-8-8-8-9-8-8-8-8-9-8-8-8-8-9------|
Then this a few times
Intro 2
e|-------------------------------------------------------|
B|-------------------------------------------------------|
G|-------------------------------------------------------|
D|-------------------------------------------------------|
A|10-10-10-10-10-10-10-10-x-x-x-x-x-x--------------------|
E|8--8--8--8--9--8--8--8--x-x-x-x-x-x--------------------|

then back to intro 1 a few times and then intro 2 a few times.  Reapeat The Above Bit A
Few Times Till a small interlude which i havent tabbed out yet.
Then on to this alot later
Chorus (2:02)
Repeat a lot        I don't know the background guitar
e|-------------------------------------------------------|
B|-------------------------------------------------------|
D|-------------------------------------------------------|
G|-------------------------------------------------------|
A|10~~~-----5~~~-------7~~~-----13~~~--------------------|
E|8~~~~-----3~~~-------5~~~-----11~~~--------------------|

11. Ode To Summer

tune the bottom three strings to C,G,C then the rest accordingly

 Drop The bottom string to D then tune the whole guitar down a step
 INTRO

 |-----------------------------------------------------------------|
 |-----------------------------------------------------------------|
 |-----------------------------------------------------------------|
 |-----------------------55-77----------------------------55--77---|
 |----77-55--77--88--77----------------77-55--77--88--77-----------|
 |-77------------------------------55------------------------------|

 |-------------------------------------------------------------------|
 |-------------------------------------------------------------------|
 |-------------------------------------------------------------------|
 |------------------------55--77----------------------------55--77---|
 |-----77-55--77--88--77----------------77-55--77--88--77------------|
 |-33--------------------------------00------------------------------|

 THEN
 Guitar 1:
 |----------------------------------------------------------|
 |----------------------------------------------------------|
 |----------------------------------------------------------|
 |77---77-----77--55---55-----55--33---33-----33--00---00---|
 |77---77-----77--55---55-----55--33---33-----33--00---00---|
 |77---77-----77--55---55-----55--33---33-----33--00---00---|

 Guitar 2:
 |-------------------------------------------------------|
 |-------------------------------------------------------|
 |-------------------------------------------------------|
 |-----------------------55--77--------------------------|
 |---77-55--77--88--77---------------play four times-----|
 |-------------------------------------------------------|

 THEN
 Verse
 |---------------------------------------------------|
 |---------------------------------------------------|
 |---------------------------------------------------|
 |---------------------------------------------------|
 |---------------------------------------------------|
 |7------------5----------------3--------------0-----|

 If iit ever came down to one day.....
 |------------------------------------------------------------------------------------------------------------------|
 |------------------------------------------------------------------------------------------------------------------|
 |------------------------------------------------------------------------------------------------------------------|
 |------------------------------------------------------------------------------------------------------------------|
 |8-8-8-8---8-8-8-8------10-10-10-10-----10-10-10-10-----12-12-12-12----12-12-12-12------15-15-15-15----15-15-15-15-|
 |8-8-8-8---8-8-8-8------10-10-10-10-----10-10-10-10-----12-12-12-12----12-12-12-12------15-15-15-15----15-15-15-15-|

 Heavy bit with scratching (I cant work out the pattern)
 |---------------------|
 |---------------------|
 |---------------------|
 |0-12-0-12-0-12-0-----|
 |0-12-0-12-0-12-0-----|
 |0-12-0-12-0-12-0-----|

 Then
 |---------------------|
 |---------------------|
 |12-12-12-12----------|
 |12-12-12-12----------|
 |12-12-12-12----------|
 |12-12-12-12----------|


The End. Thank you, enjoy

            
            
Suggest correction
Creating personal tab
Creating personal tab
You can edit any tab online and save it as your Personal.

You can edit, replace or remove any tab part or add personal notes – all changes will be seen only by you.

Personal tabs can be accessed anytime from any device, even offline.
Learn more »
Give kudos to tab author, rate the tab!
1 2 3 4 5
comments
print report bad tab
guest
You may want to rate the tab now too:
select rating
Wanna post a correction for this tab? Suggest correction