Oops, an error
Loading. Please wait.

The Fake Sound Of Progress tab

version 5
version 5

Interactive

5,565 views 3 this week
1 commentread comment
1 2 3 4 5
x 14
add to favorites
×
Save as Personal and add changes to this tab that will be seen only by you. Learn more ›
×
You can save this tab as Personal to edit and correct it or add notes. All changes will be seen only by you. Learn more »
launch autoscroll
font size
0
reset
how to read this tab
guitar tuner
edit
Autoscroll
slow
fast
+/-
esc
set tempo
stop
#---------------------------------PLEASE NOTE----------------------------------#
#This file is the author's own work and represents their interpretation of the #
#song. You may only use this file for private study, scholarship, or research. #
#------------------------------------------------------------------------------#
#------------Created with Taborama Tab Creator-----------------#
#------------------------------------------------------------------------------#

Title: The Fake Sound Of Progress
Artist: Lost Prophets
Album: The Fake Sound of Progress

Instrument: 6 String Guitar

Tabbed by: Andy M (spynalkordam@hotmail.com)

Tuning: Drop C ( C G C F A D)

This version is similar to the one done by Tommi except I fixed the harmonix at the beginning 
and the low c string needed to be used on the intro instead of the high one. 
I also used a different approach to the chorus.
Key:
< >= Natural Harmonix
h=hammer on
p=pull off
/\=slides
P.M.=Palm mute the notes above
()=echoed note(dont actually play it)
x=percussive strum


00:00 Guitar 1 (Echo)
D|-------------<12>--(12)----------||
A|-<7>-(7)-------------------------||
F|---------------------------------|| 
C|---------------------------------||
G|---------------------------------||
C|---------------------------------||


D|----<12>--(12)-------------------||
A|-------------------<12>---(12)---||
F|---------------------------------||
C|---------------------------------||
G|---------------------------------||
C|---------------------------------||
Guitar 2
00:02
D|------------------------------------------------------2------------||
A|-------5h7------------5h7------------5h7------------5--------------||
F|-------------------------------------------------------------------||
C|-------------------------------------------------------------------||
G|-------------------------------------------------------------------||
C|-4---------------6-------------0-------------2---------------------||
Guitar 1
00:21
D|---------------------------------||
A|---------------------------------||
F|14p11--14p11--11/16---14--11--11\||
C|---------------------------------||
G|---------------------------------||
C|---------------------------------||
                                CHORUS 00:30
Guitar 1
D|-------------------------------------------------------||
A|-------------------------------------------------------||
F|-------------------------------------------------------||
C|-4-----6----0----2-----4-----6-----0-----2--xx-xx------||
G|-4-----6----0----2-----4-----6-----0-----2--xx-xx-xx---||
C|-4-----6----0----2-----4-----6-----0-----2--xx-xx-xx---||
Guitar 2-Some improvisation would sound cool on this part if you play it live-but the 
boring way it is played on the cd is:
D|----------------||
A|-----5h7--------||
F|----------------|| 4x
C|----------------||
G|----------------||
C|----------------||
Both Guitars
00:49
D|----------------||
A|----------------||
F|----------------||hold for two measures while the drummer does
C|--------4-------||his thing
G|--------4-------||
C|--------4-------||
                                 VERSE
Both Guitars
00:54
D|---9(9)--9(9)---7(7)--7(7)--7(7)--7(7)--7(7)--12-(12)-------||
A|---7(7)--7(7)---9(9)--9(9)-10(10)10(10)-7(7)----------12----||
F|---9(9)--9(9)---9(9)--9(9)--9(9)--9(9)--9(9)----------------||
C|------------------------------------------------------------||2x
G|------------------------------------------------------------||
C|------------------------------------------------------------||
                              PRE-CHORUS 1:13
Guitar 1
D|-----9----------||
A|---7----7-------||
F|-9--------------||16x
C|----------------||
G|----------------||
C|----------------||
During this part Guitar 2 does the bass note run,on the low c string,that's used in the chorus:
D|----------------||
A|----------------||
F|----------------||4x
C|----------------||
G|----------------||
C|-4--6---0---2---||
Chorus:1:32
Verse #2 :1:56
Pre-Chorus #2:2:15
Chorus #2: 2:33
                              Bridge 2:52
Guitar 1:  Play the prechorus and half way thru Guitar 2 joins with these 
chords(listen to the cd to get the rhythm right):

Guitar 2
3:02
D|---9-9--7-7--7-7--7-7--7-7----||
A|---7-7--9-9-1010-1010--7-7----||
F|---9-9--9-9--9-9--9-9--9-9----||
C|------------------------------||
G|------------------------------||
C|------------------------------||

This next part of the bridge is the only part that 
im a little not sure about-Tommi uses a minor chord in his
(the one thats really annoying to do in dropped tuning) and I 
couldnt figure out how it could fit in cause it doesnt sound even 
in the right key-so i tried doing this and it sounds pretty close:

Both Guitars
3:20
D|---------------------------------||
A|---------------------------------||
F|---------------------------------||
C|--444444444-44-444---------------||
G|--444444444-44-444---------------||
C|--444444444-44-444---------------||
           "SWING IT!"

Guitar 1 3:22
(Palm Mute!)
D|-------------------------------------------------------------------||
A|-------------------------------------------------------------------||
F|-------------------------------------------------------------------||
C|--4444444-44-444--22222222-22-222-0000000-00-000--4444-2222-0000---||x2
G|--4444444-44-444--22222222-22-222-0000000-00-000--2222-2222-0000---||
C|--4444444-44-444--22222222-22-222-0000000-00-000--2222-2222-0000---||
Guitar 2
D|-------------------------------------------------------------------||
A|-------------------------------------------------------------------||
F|-------------------------------------------------------------------||
C|11-11-11-11-11---9999999-99-999--7777777-77-777--4444-2222-0000----||x2
G|-9999999-99-999--7777777-77-777--5555555-55-555--2222-2222-0000----||
C|-------------------------------------------------2222-2222-0000----||

Chorus #3 at 4:00

at 4:20 Guitar 2 joins witht he Pre-chorus riff during the Chorus

Ender:
 D|----------------||
 A|----------------||
 F|----------------||
 C|--4-----0-------||
 G|--4-----0-------||
 C|--4-----0-------||

"The Fake Sound of Progress...."===========Song: The Fake Sound of Progress
Artist: Lost Prophets
Album: The Fake Sound of Progress
Tabbed By: Tommi S.
Tuning: One step down and drop to c

Intro:
		
1|-----------------------------------------------------------|
2|--(7)------------------------------------------------------|
3|------------(7)-----------(7)-----------------(7)----------|  Guitar 1
4|-------------------------------------(7)--------------(7)--|
5|-----------------------------------------------------------|
6|-----------------------------------------------------------|
		
1|-------0--2--------0--2--------0--2--------0-—2--|
2|-------------------------------------------------|
3|---4-----------6-----------0-----------2---------|  Guitar 2
4|-------------------------------------------------|
5|-------------------------------------------------|
6|-------------------------------------------------|

Fill 1

1|---------------------------------------|
2|---------------------------------------|
3|---14p11---14p11—-11/16--14--11—-11---|
4|---------------------------------------|
5|---------------------------------------|
6|---------------------------------------|

Chorus w/intro

1|-------------------------------------------------------------------|
2|-------------------------------------------------------------------|
3|-------------------------------------------------------------------|
4|---4-----6-----0-----2-----4-----6-----0-----2---------------------|
5|---4-----6-----0-----2-----4-----6-----0-----2---2--2--2--2--2--2--|
6|---4-----6-----0-----2-----4-----6-----0-----2---2--2--2—-2--2--2--|
pm                                                 .  .  .  .  .  . 

1|-----------------------------------------------------------|
2|-----------------------------------------------------------|
3|-----------------------------------------------------------|
4|---4-----6-----0-----2-----4-----6-----0-----2----------4--|
5|---4-----6-----0-----2-----4-----6-----0-----2---2--2---4--|
6|---4-----6-----0-----2-----4-----6-----0-----2---2--2---4--|
pm                                                 .  .


Verse w/delay

1|--9--9----9--9----7--7----7—-7-----7---7-----7---7----7--7----12—-7---|
2|--7--7----7--7----9--9----9—-9----10--10----10--10----7--7------------|
3|--9--9----9--9----9--9----9—-9-----9---9-----9---9----9--9------------|
4|----------------------------------------------------------------------|
5|----------------------------------------------------------------------|
6|----------------------------------------------------------------------|Pre-Chorus

1|---------9--------------9-----|
2|------7-----7--------7-----7--|
3|--9--------------9------------|  x8
4|------------------------------|  
5|------------------------------|
6|------------------------------|

Then

1|--------------------------|
2|--------------------------|
3|--------------------------|
4|--4--4--4--4--4--4--4—-4--|
5|--4--4--4--4--4--4--4--4--|
6|--4--4--4--4--4--4--4--4--|
pm  .  .  .  .  .  .  .  .

Bridge:

1|---------9--------------9-----|
2|------7-----7--------7-----7--|
3|--9--------------9------------|
4|------------------------------|  
5|------------------------------|
6|------------------------------|

And the other guitar plays this

1|--9---9---7---7—---7---7-----7---7---7---7--|
2|--7---7---9---9—--10--10----10--10---7---7--|
3|--9---9---9---9—---9---9-----9---9---9---9--|
4|--------------------------------------------|
5|--------------------------------------------|
6|--------------------------------------------|

Then couple of times

1|----------------------------------------------------------------------------|
2|----------------------------------------------------------------------------|
3|----------------------------------------------------------------------------|
4|--4--4--4--4--4--x--4--x--4--x--4--4----4--4--4--4--4--x--4--x--4--x--4—-4--|
5|--4--4--4--4--4--x--4--x--4--x--4--4----2--2--2--2--2--x--2--x--2--x--2—-2--|
6|--4--4--4--4--4--x--4--x--4--x--4--4----2--2--2--2--2--x--2--x--2--x--2—-2--|

1|-----------------------------------------------------------------------------|
2|-----------------------------------------------------------------------------|
3|-----------------------------------------------------------------------------|
4|--6--6--6--6--6--x--6--x--6--x--6--6---5--5--5--5--5—-4—-4—-4—-4—-4—-3—-3—-3-|
5|--4--4--4--4--4--x--4--x--4--x--4—-4---5--5--5--5--5--4—-4—-4—-4—-4—-3—-3—-3-|
6|--6--6--6--6--6--x--6--x--6--x--6--6---5--5--5--5--5--4—-4—-4—-4—-4—-3—-3—-3-|

1|-----------------------|
2|-----------------------|
3|-----------------------|
4|--4-----6-----0-----2--|  x3  w/pre-chorus
5|--4-----6-----0-----2--|
6|--4-----6-----0-----2--|


Fourth time

1|--------------------------------------------|
2|--------------------------------------------|
3|--------------------------------------------|
4|--4-----6-----0-----------------------------|
5|--4-----6-----0-----2--2--2--2--2--2--2--2--|
6|--4-----6-----0-----2--2--2--2--2--2--2--2--|
pm                    .  .  .  .  .  .  .  .

Then again chorus

1|-------------------------------------------------------------------|
2|-------------------------------------------------------------------|
3|-------------------------------------------------------------------|
4|---4-----6-----0-----2-----4-----6-----0-----2---------------------|
5|---4-----6-----0-----2-----4-----6-----0-----2---2--2--2--2--2--2--|
6|---4-----6-----0-----2-----4-----6-----0-----2---2--2--2—-2--2--2--|
pm                                                 .  .  .  .  .  . 

1|-----------------------------------------------------------|
2|-----------------------------------------------------------|
3|-----------------------------------------------------------|
4|---4-----6-----0-----2-----4-----6-----0-----2----------4--|
5|---4-----6-----0-----2-----4-----6-----0-----2---2--2---4--|
6|---4-----6-----0-----2-----4-----6-----0-----2---2--2---4--|
pm                                                 .  .

Then outro

1|---------9--------------9-----|
2|------7-----7--------7-----7--|
3|--9--------------9------------|  x8
4|------------------------------|  
5|------------------------------|
6|------------------------------|

1|----------|
2|----------|
3|----------|
4|--4----0--|
5|--4----0--|
6|--4----0--|
Suggest correction
Creating personal tab
Creating personal tab
You can edit any tab online and save it as your Personal.

You can edit, replace or remove any tab part or add personal notes – all changes will be seen only by you.

Personal tabs can be accessed anytime from any device, even offline.
Learn more »
comments
print report bad tab
1 comment total.
0 reply
Tias 181 Nov 10, 2006 07:50 AM

This is the good one, this is drop c

guest
Wanna post a correction for this tab? Suggest correction