Oops, an error
Loading. Please wait.

To Hell We Ride tab

version 3
version 3

Whole song

  • This tab is better than the other highly rated one... Show more

Interactive

67 views 1 this week
no commentswrite comment
1 2 3 4 5
3 more votes to show rating
add to favorites
×
Save as Personal and add changes to this tab that will be seen only by you. Learn more ›
×
You can save this tab as Personal to edit and correct it or add notes. All changes will be seen only by you. Learn more »
launch autoscroll
font size
0
reset
how to read this tab
guitar tuner
edit
Autoscroll
slow
fast
+/-
esc
set tempo
stop
About this tab version
This tab is better than the other highly rated ones (ver 1) because I fixed the pre-chorus,fixed the bridge, added the lead guitar on the chorus and added the chords that you hear at the end of the song which ver 1 didn't tab correctly. Was this info helpful? Yes No
-------------------------------------------------------------------------------
                             To hell we ride - lostprophets
-------------------------------------------------------------------------------
Tabbed by:okman
Artist:lostprophets
Album:Start Something
Song:To hell we ride
Tuning:Drop D (e B G D A D)

 Intro
 00:00-00:03 Lee Gaze (Lead Guitar)
e|------12--------12--------12--------12-------12------12------12------12-|
B|----9----9----9----9----9----9----9----9---10--10--10--10--10--10--10---|
G|-11--------11--------11--------11--------11------11------11------11-----|
D|------------------------------------------------------------------------|x1
A|------------------------------------------------------------------------|
D|------------------------------------------------------------------------|


 00:03-00:13 Both Guitars
e|-------------------------------------------------------------|
B|-------------------------------------------------------------|
G|-------------------------------------------------------------| 
D|-2---2-4-2-4-4-2--2-2-4-2-4-4-2--2-2-4-2-4-4-2---2-4-2---2-4-|x2
A|-2---2-4-2-4-4-2--2-2-4-2-4-4-2--2-2-4-2-4-4-2---2-4-2---2-4-|
D|-2---2-4-2-4-4-2--2-2-4-2-4-4-2--2-2-4-2-4-4-2---2-4-2---2-4-|

 00:13-00:17 Mike Lewis (Rhytm Guitar)
e|---------------------------------------------------------------------------|
B|---------------------------------------------------------------------------|
G|---------------------------------------------------------------------------|
D|-0~-2~---------------------------------------------------------------------|x1
A|-0~-2~---------------------------------------------------------------------|
E|-0~-2~---------------------------------------------------------------------|

 Pre-Chorus
 00:17-00:36 Mike Lewis (Rhytm Guitar)
e|---------------------------------------------------------------------------|
B|---------------------------------------------------------------------------|
G|---------------------------------------------------------------------------|
D|---44-4-4-44-4-4-44-4------------------------------------------------------|x8
A|---44-4-4-44-4-4-44-4------------------------------------------------------|
E|---44-4-4-44-4-4-44-4------------------------------------------------------|
 P.M...     ..     ..
 
 00:17-00:36 Lee Gaze (Lead Guitar)
e|------------------------------------------------------------------------------|
B|-------------------------------------------------------------------------14---|
G|---------------------------------------------11~~-11/14-16/13-16/13-11-14-----| 
D|------------------------------------------14----------------------------------|x1
A|-9~-------12~------14/11~-14/11~-12~-11-14------------------------------------|
D|------------------------------------------------------------------------------|

 00:36-00:51 Lee Gaze (Lead Guitar)
e|--------------------------------------------------------------------------------|
B|-6/7p5------------6/7p5------------6/7p5----------------------------------------|
G|------7-6-7-6-4/6------7-6-7-6-4/6------7-6-7-6-4-4--7-7-7-7-7-7-4-7-7-7-7-7-7-6|
D|--------------------------------------------------------------------------------|x2
A|--------------------------------------------------------------------------------|
D|--------------------------------------------------------------------------------|
 P.M.                                                  . . . .   .   . . . .   .

 Bridge
 Both Guitars 00:51-00:57
e|---------------------------------------------------------------------------------------|
B|-5-5--5-5-5--5-5-5--5-5-5--------------------------------------------------------------|
G|-6-6--6-6-6--6-6-6--6-6-6---14tp-------------------------------------------------------|
D|-4-4--4-4-4--4-4-4--4-4-4--------------------------------------------------------------|x1
A|-4-4--4-4-4--4-4-4--4-4-4--------------------------------------------------------------|
E|-4-4--4-4-4--4-4-4--4-4-4--------------------------------------------------------------|
 
 00:57-01:06 Both Guitars
e|-------------------------------------------------------------|
B|-------------------------------------------------------------|
G|-------------------------------------------------------------| 
D|-2---2-4-2-4-4-2--2-2-4-2-4-4-2--2-2-4-2-4-4-2---2-4-2---2-4-|x2
A|-2---2-4-2-4-4-2--2-2-4-2-4-4-2--2-2-4-2-4-4-2---2-4-2---2-4-|
D|-2---2-4-2-4-4-2--2-2-4-2-4-4-2--2-2-4-2-4-4-2---2-4-2---2-4-|

 Chorus 
 01:06-01:20 Lee Gaze (Lead Guitar) not the actual amount just the chords
e|---------------------------------------------------------------------------|
B|---------------------------------------------------------------------------|
G|--11------13---14-----7/11---13--------------------------------------------|
D|--x-------x----x------x-x-----x--------------------------------------------|x1
A|--9-------11---12-----5/9----11--------------------------------------------|
D|---------------------------------------------------------------------------|

 01:06-01:20 Mike Lewis (Rhytm Guitar) not the actual amount just the chords
e|---------------------------------------------------------------------------|
B|---------------------------------------------------------------------------|
G|---------------------------------------------------------------------------|
D|--2-2-2-2-4-4-4-4-7-7-7-7-9-9-9-9------------------------------------------|x2
A|--2-2-2-2-4-4-4-4-7-7-7-7-9-9-9-9------------------------------------------|
D|--2-2-2-2-4-4-4-4-7-7-7-7-9-9-9-9------------------------------------------| 

 01:20-01:25 Both Guitars
e|-------------------------------------------------------------|
B|-------------------------------------------------------------|
G|-------------------------------------------------------------| 
D|-2---2-4-2-4-4-2--2-2-4-2-4-4-2--2-2-4-2-4-4-2---2-4-2---2-4-|x1
A|-2---2-4-2-4-4-2--2-2-4-2-4-4-2--2-2-4-2-4-4-2---2-4-2---2-4-|
D|-2---2-4-2-4-4-2--2-2-4-2-4-4-2--2-2-4-2-4-4-2---2-4-2---2-4-|


 Pre-Chorus
 01:25-01:42 Mike Lewis (Rhytm Guitar)
e|---------------------------------------------------------------------------|
B|---------------------------------------------------------------------------|
G|---------------------------------------------------------------------------|
D|---44-4-4-44-4-4-44-4------------------------------------------------------|x8
A|---44-4-4-44-4-4-44-4------------------------------------------------------|
E|---44-4-4-44-4-4-44-4------------------------------------------------------|
 P.M...     ..     ..
 

 01:25-01:42 Lee Gaze (Lead Guitar)
e|------------------------------------------------------------------------------|
B|-------------------------------------------------------------------------14---|
G|---------------------------------------------11~~-11/14-16/13-16/13-11-14-----| 
D|------------------------------------------14----------------------------------|x1
A|-9~-------12~------14/11~-14/11~-12~-11-14------------------------------------|
D|------------------------------------------------------------------------------|

 01:42-01:51 Lee Gaze (Lead Guitar)
e|--------------------------------------------------------------------------------|
B|-6/7p5------------6/7p5------------6/7p5----------------------------------------|
G|------7-6-7-6-4/6------7-6-7-6-4/6------7-6-7-6-4-4--7-7-7-7-7-7-4-7-7-7-7-7-7-6|
D|--------------------------------------------------------------------------------|x2
A|--------------------------------------------------------------------------------|
D|--------------------------------------------------------------------------------|
 P.M.                                                  . . . .   .   . . . .   .

 Bridge
 Both Guitars 01:58-02:03
e|---------------------------------------------------------------------------------------|
B|-5-5--5-5-5--5-5-5--5-5-5--------------------------------------------------------------|
G|-6-6--6-6-6--6-6-6--6-6-6---14tp-------------------------------------------------------|
D|-4-4--4-4-4--4-4-4--4-4-4--------------------------------------------------------------|x1
A|-4-4--4-4-4--4-4-4--4-4-4--------------------------------------------------------------|
E|-4-4--4-4-4--4-4-4--4-4-4--------------------------------------------------------------|
 
 02:03-02:13 Both Guitars
e|-------------------------------------------------------------|
B|-------------------------------------------------------------|
G|-------------------------------------------------------------| 
D|-2---2-4-2-4-4-2--2-2-4-2-4-4-2--2-2-4-2-4-4-2---2-4-2---2-4-|x2
A|-2---2-4-2-4-4-2--2-2-4-2-4-4-2--2-2-4-2-4-4-2---2-4-2---2-4-|
D|-2---2-4-2-4-4-2--2-2-4-2-4-4-2--2-2-4-2-4-4-2---2-4-2---2-4-|

 Chorus 
 02:13-02:26 Lee Gaze (Lead Guitar) not the actual amount just the chords
e|---------------------------------------------------------------------------|
B|---------------------------------------------------------------------------|
G|--11------13---14-----7/11---13--------------------------------------------|
D|--x-------x----x------x-x-----x--------------------------------------------|x1
A|--9-------11---12-----5/9----11--------------------------------------------|
D|---------------------------------------------------------------------------|

 02:13-02:26 Mike Lewis (Rhytm Guitar) not the actual amount just the chords
e|---------------------------------------------------------------------------|
B|---------------------------------------------------------------------------|
G|---------------------------------------------------------------------------|
D|--2-2-2-2-4-4-4-4-7-7-7-7-9-9-9-9------------------------------------------|x2
A|--2-2-2-2-4-4-4-4-7-7-7-7-9-9-9-9------------------------------------------|
D|--2-2-2-2-4-4-4-4-7-7-7-7-9-9-9-9------------------------------------------|

 02:26-02:31 Both Guitars
e|-------------------------------------------------------------|
B|-------------------------------------------------------------|
G|-------------------------------------------------------------| 
D|-2---2-4-2-4-4-2--2-2-4-2-4-4-2--2-2-4-2-4-4-2---2-4-2---2-4-|x1
A|-2---2-4-2-4-4-2--2-2-4-2-4-4-2--2-2-4-2-4-4-2---2-4-2---2-4-|
D|-2---2-4-2-4-4-2--2-2-4-2-4-4-2--2-2-4-2-4-4-2---2-4-2---2-4-|

 Interlude
 02:31-02:39 Lee Gaze (Lead Guitar)
e|------12-------12--------12-----12-|
B|-10--------9-----------9------10---|
G|--------------------11------11-----|
D|-----------------------------------|x1
A|-----------------------------------|
D|-----------------------------------|

 02:39-02:44 Lee Gaze (Lead Guitar)
e|------12--------12--------12--------12-------12------12------12------12-|
B|----9----9----9----9----9----9----9----9---10--10--10--10--10--10--10---|
G|-11--------11--------11--------11--------11------11------11------11-----|
D|------------------------------------------------------------------------|x1
A|------------------------------------------------------------------------|
D|------------------------------------------------------------------------|
 
 02:44-02:49 Lee Gaze (Lead Guitar)
e|-----14------14------14------14------14------14------14------14-|
B|---12--12--12--12--12--12--12--12--12--12--12--12--12--12--12---|
G|-13------13------13------13------14------14------14------14-----|
D|----------------------------------------------------------------|x1
A|----------------------------------------------------------------|
D|----------------------------------------------------------------|

 02:49-02:53 Lee Gaze (Lead Guitar)
e|------12--------12--------12--------12-------12------12------12------12-|
B|----9----9----9----9----9----9----9----9---10--10--10--10--10--10--10---|
G|-11--------11--------11--------11--------11------11------11------11-----|
D|------------------------------------------------------------------------|x1
A|------------------------------------------------------------------------|
D|------------------------------------------------------------------------|

 02:53-03:02 Lee Gaze (Lead Guitar) not the actual amount just the chords
e|-12-12-12-12-12-----12-12-12-12-12-----12-12-12-12-12------12-12-12-12-12-|
B|-9--9--9--9--9------9--9--9--9--9------10-10-10-10-10------10-10-10-10-10-|
G|-11-11-11-11-11-----11-11-11-11-11-----11-11-11-11-11------11-11-11-11-11-|
D|--------------------------------------------------------------------------|x1
A|--------------------------------------------------------------------------|
D|--------------------------------------------------------------------------|

 03:02-03:15 Mike Lewis (Rhytm Guitar)
e|-----------------------------------------------------|
B|-----------------------------------------------------|
G|-----------------------------------------------------|
D|-0-----0-2-----2-4-----4-0-----0--0------0-2----2----|x1
A|-0-----0-2-----2-4-----4-0-----0--0------0-2----2----|
D|-0-----0-2-----2-4-----4-0-----0--0------0-2----2----|


03:02-03:07 Lee Gaze (Lead Guitar)
e|------12--------12--------12--------12-------12------12------12------12-|
B|----9----9----9----9----9----9----9----9---10--10--10--10--10--10--10---|
G|-11--------11--------11--------11--------11------11------11------11-----|
D|------------------------------------------------------------------------|x1
A|------------------------------------------------------------------------|
D|------------------------------------------------------------------------|

 03:07-00:12 Lee Gaze (Lead Guitar)
e|-----14------14------14------14------14------14------14------14---|
B|---12--12--12--12--12--12--12--12--12--12--12--12--12--12--12--12-|
G|-13------13------13------13------14------14------14------14-------|
D|------------------------------------------------------------------|x1
A|------------------------------------------------------------------|
D|------------------------------------------------------------------|

03:12-03:15 Lee Gaze (Lead Guitar)
e|------12--------12--------12--------12-------12------12------12------12-|
B|----9----9----9----9----9----9----9----9---10--10--10--10--10--10--10---|
G|-11--------11--------11--------11--------11------11------11------11-----|
D|------------------------------------------------------------------------|x1
A|------------------------------------------------------------------------|
D|------------------------------------------------------------------------|

Outro
03:15-03:39 Mike Lewis (Rhytm Guitar)
e|----------------------------------------|
B|----------------------------------------|
G|----------------------------------------| 
D|-/4-4-4-4-4-44-4--/4-4-4-4-4-44-4-------|
A|-/4-4-4-4-4-44-4--/4-4-4-4-4-44-4-------|
D|-/4-4-4-4-4-44-4--/4-4-4-4-4-44-4-------|

03:29-03:39 Lee Gaze (Lead Guitar) not the actual amount just the chords
e|-12-12-12-12-12-14-14-14-14-14-16-16-16-16-16-16-17-17-17-17-17-----------|
B|-x--x--x--x--x--x--x--x--x--x--x--x--x--x--x--x--x--x--x--x--x------------|
G|-9--9--9--9--9--11-11-11-11-11-13-13-13-13-13-13-14-14-14-14-14-----------|
D|--------------------------------------------------------------------------|x1
A|--------------------------------------------------------------------------|
D|--------------------------------------------------------------------------|


************************************

| /   slide up
| \   slide down
| h   hammer-on
| p   pull-off
| ~   vibrato
| +   harmonic
| x   Mute note
| b   Bend
| pb  Pre-bend
| br  Bend release
| pbr Pre-bend release
| brb Bend release bend

************************************

            
            
Suggest correction
Creating personal tab
Creating personal tab
You can edit any tab online and save it as your Personal.

You can edit, replace or remove any tab part or add personal notes – all changes will be seen only by you.

Personal tabs can be accessed anytime from any device, even offline.
Learn more »
Give kudos to tab author, rate the tab!
1 2 3 4 5
comments
print report bad tab
guest
You may want to rate the tab now too:
select rating
Wanna post a correction for this tab? Suggest correction