Oops, an error
Loading. Please wait.

Wake Up Make A Move bass

version 1
version 1

Whole song

Interactive

1,770 views 3 this week
3 commentsread comments
1 2 3 4 5
1 last vote to show rating
add to favorites
×
Save as Personal and add changes to this tab that will be seen only by you. Learn more ›
×
You can save this tab as Personal to edit and correct it or add notes. All changes will be seen only by you. Learn more »
launch autoscroll
font size
0
reset
guitar tuner
edit
Autoscroll
slow
fast
+/-
esc
set tempo
stop
Author
Intro

G|------------------------------------|
D|00000000-88888888-33333333333333-55-|
A|------------------------------------|
E|------------------------------------|

Repeat Intro

2nd time

G|----|
D|-0~-|
A|----|
E|----|

no bass for verse

Pre-Chorus

G|-------------------------|
D|-------1111--5555-5~-8888|
A|3333-3~------------------|
E|-------------------------|

Chorus
X2
G|-----------------------------------|
D|00000000-88888888-33333333333333-55|
A|-----------------------------------|
E|-----------------------------------|

2nd time
G|-----|
D|-0~--|
A|-----|
E|-----|

No Bass For Verse

Pre-Chorus

Chorus X4

Bridge

G|-------------------|
D|-------------------|
A|3333-3333-3333-3333|
E|-------------------|

G|-------|
D|--6-8-3|
A|33-----|
E|-------|X8(i think)

Then:

G|-----------|
D|-6-8-6-8---|
A|3-------3~-|
E|-----------|

Repeat Chorus untill the end.

            
            
Suggest correction
Creating personal tab
Creating personal tab
You can edit any tab online and save it as your Personal.

You can edit, replace or remove any tab part or add personal notes – all changes will be seen only by you.

Personal tabs can be accessed anytime from any device, even offline.
Learn more »
Give kudos to tab author, rate the tab!
1 2 3 4 5
comments
print report bad tab
3 comments total.
0 reply
kirby3 30 Jan 23, 2010 07:34 PM

G|-----------------------------------|
D|00000000-88888888-33333333333333-55|
A|-----------------------------------|
E|-----------------------------------|

the chorus and intro stands as this, I think it is..

G|-----------------------------------|
D|33333333-88888888-33333333333333-55|
A|-----------------------------------|
E|-----------------------------------|

and then if you listen to before the guitar comes in with the synth strings it's the same chord progression as the chorus, which is the intro.

It actually changes the second time around but I couldn't be bothered figuring it out, but there thats what I could be bothered doing. :D

kirby3

0 reply
kirby3 30 Jan 23, 2010 07:48 PM

after playing it again I thought this would be better..

G|-----------------------------------|
D|33333333----------55555555555555---|
A|---------------------------------55|
E|---------33333333------------------|

and then

G|-----------------------------------|
D|33333333---------------------------|
A|------------------1111111111111111-|
E|---------33333333------------------|

thanks again kirby3

0 reply
kirby3 30 Jan 23, 2010 07:52 PM

after playing it again I thought this would be better..

G|-----------------------------------|
D|33333333----------55555555555555---|
A|---------------------------------55|
E|---------33333333------------------|

and then

G|-----------------------------------|
D|33333333---------------------------|
A|------------------1111111111111111-|
E|---------33333333------------------|

thanks again kirby3

guest
You may want to rate the tab now too:
select rating
Wanna post a correction for this tab? Suggest correction