Oops, an error
Loading. Please wait.

Wake Up Make A Move tab

version 2
version 2

Whole song

Interactive

894 views 1 this week
2 commentsread comments
1 2 3 4 5
x 6
add to favorites
×
Save as Personal and add changes to this tab that will be seen only by you. Learn more ›
×
You can save this tab as Personal to edit and correct it or add notes. All changes will be seen only by you. Learn more »
launch autoscroll
font size
0
reset
how to read this tab
guitar tuner
edit
Autoscroll
slow
fast
+/-
esc
set tempo
stop
PM . = palm mute that/those notes
/ = slide up
 = slide down
?b? = bend string on that fret to make sound of ? fret above.


INTRO:
Guitar 1: (you want a chorus effect on eg. \"Dimension\" on Line 6 MM4, as well
	   as single coils ie neck and middle \'cos a soapbar is actually used)

There are different variations here - the 1st one is the correct 1 but the 2nd
can be played which leads into the up an down riff played fast when bands kicks 
in.

		     x16		  x8, then go into this riff for x8
D|---------------------|--------------------------------------------------|
A|-----13----13--------|-----13----13------|--------13----------13--------|
F|--14----14----14v----|--------14----14v--|-----14----14----14----14-----|
C|---------------------|--12---------------|--12----------12----------12~-|
G|---------------------|-------------------|------------------------------|
C|---------------------|--------------------------------------------------|

When Guitar 2 ends on the ringing open strings, Guitar 1 could (optional)
play the 14th fret on F string again to end (using an FX loop would do this,
meaning that they could go straight into the verse more easily) or could go
straight into the verse.

After guitar 1\'s 8 repeats, Guitar 2 comes in with this:

Guitar 2:
D|------------------------------------------------------------------------|
A|------------------------------------------------------------------------|
F|------------------------------------------------------------------------|
C|--0-0-0-0-0-0-0-0-0-0-0--8-8-8-8-8-8-8-8-8-8-8--3-3-3-3-3-3-3-3-3-3-3-3-|
G|--0-0-0-0-0-0-0-0-0-0-0--8-8-8-8-8-8-8-8-8-8-8--3-3-3-3-3-3-3-3-3-3-3-3-|
C|--0-0-0-0-0-0-0-0-0-0-0--8-8-8-8-8-8-8-8-8-8-8--3-3-3-3-3-3-3-3-3-3-3-3-|

			      x2, on 2nd repeat, end riff on this:
D|-----------------------------|------------------------------------------|
A|-----------------------------|------------------------------------------|
F|-----------------------------|------------------------------------------|
C|-3-3-3-3-3-3-3-3-3-3-3--5-5--|--0~--------------------------------------|
G|-3-3-3-3-3-3-3-3-3-3-3--5-5--|--0~--------------------------------------|
C|-3-3-3-3-3-3-3-3-3-3-3--5-5--|--0~--------------------------------------|


VERSE:
Both Guitars: (use some kind of slow volume swell here - kinda like a panner but 
	       u dont want the sound to fade from in to out but from out to in)

These stretches are quite big so u either have ur guitar high up or position
it almost vertical.  Guitar 2 doesnt actually play the high notes, so they only
play the low bass notes.

									 x2
D|------------------------------------------------------------------------|
A|---------8~-------------------------------------------------------------|
F|--7~-----0~-----12~----12~----------------------------------------------|
C|--0~-----5~-----10~----12~----------------------------------------------|
G|--5~-----3~-----7~-----10~----------------------------------------------|
C|--0~-----3~-----7~-----10~----------------------------------------------|


PRE-CHORUS:
Both Guitars								 x2
D|------------------------------------------------------------------------|
A|----------------8--8--8~------------------------------------------------|
F|-7-7-7-7--7~----x--x--x----12-12-12-12--12~---12--12--12~---------------|
C|-0-0-0-0--0~----5--5--5~---10-10-10-10--10~---12--12--12~---------------|
G|-5-5-5-5--5~----3--3--3~---7--7--7--7---7~----10--10--10~---------------|
C|-0-0-0-0--0~----3--3--3~---7--7--7--7---7~----10--10--10~---------------|

Guitar 1:
D|------------------------------------------------------------------------|
A|-----13----13-----------------------------------------------------------|
F|--14----14----14v-------------------------------------------------------|
C|------------------------------------------------------------------------|
G|------------------------------------------------------------------------|
C|------------------------------------------------------------------------|


CHORUS:
Both Guitars
D|------------------------------------------------------------------------|
A|------------------------------------------------------------------------|
F|------------------------------------------------------------------------|
C|--0-0-0-0-0-0-0-0-0-0-0--8-8-8-8-8-8-8-8-8-8-8--3-3-3-3-3-3-3-3-3-3-3-3-|
G|--0-0-0-0-0-0-0-0-0-0-0--8-8-8-8-8-8-8-8-8-8-8--3-3-3-3-3-3-3-3-3-3-3-3-|
C|--0-0-0-0-0-0-0-0-0-0-0--8-8-8-8-8-8-8-8-8-8-8--3-3-3-3-3-3-3-3-3-3-3-3-|

			      x2, on 2nd repeat, end riff on this:
D|-----------------------------|------------------------------------------|
A|-----------------------------|------------------------------------------|
F|-----------------------------|------------------------------------------|
C|-3-3-3-3-3-3-3-3-3-3-3--5-5--|--0~--------------------------------------|
G|-3-3-3-3-3-3-3-3-3-3-3--5-5--|--0~--------------------------------------|
C|-3-3-3-3-3-3-3-3-3-3-3--5-5--|--0~--------------------------------------|


Repeat verse, pre-chorus again.

CHORUS 2:
Guitar 2:
D|------------------------------------------------------------------------|
A|------------------------------------------------------------------------|
F|------------------------------------------------------------------------|
C|--0-0-0-0-0-0-0-0-0-0-0--8-8-8-8-8-8-8-8-8-8-8--3-3-3-3-3-3-3-3-3-3-3-3-|
G|--0-0-0-0-0-0-0-0-0-0-0--8-8-8-8-8-8-8-8-8-8-8--3-3-3-3-3-3-3-3-3-3-3-3-|
C|--0-0-0-0-0-0-0-0-0-0-0--8-8-8-8-8-8-8-8-8-8-8--3-3-3-3-3-3-3-3-3-3-3-3-|

									 x4
D|------------------------------------------------------------------------|
A|------------------------------------------------------------------------|
F|------------------------------------------------------------------------|
C|-3-3-3-3-3-3-3-3-3-3-3--5-5---------------------------------------------|
G|-3-3-3-3-3-3-3-3-3-3-3--5-5---------------------------------------------|
C|-3-3-3-3-3-3-3-3-3-3-3--5-5---------------------------------------------|

Guitar 1 comes in with something like this on 2nd repeat of chorus:
									 x4
D|------------------------------------------------------------------------|
A|----13----13----13----13------------------------------------------------|
F|-14----14----14----14----14b15r14---------------------------------------|
C|------------------------------------------------------------------------|
G|------------------------------------------------------------------------|
C|------------------------------------------------------------------------|


BRIDGE:
Both Guitars: (Distortion)

	    x4
D|-----------|-------------------------------------------------------------|
A|-----------|-------------------------------------------------------------|
F|-----------|-------------------------------------------------------------|
C|-0-0--0-0--|---0-0-8-0-8-8---0-0-8-0-8-10---0-0-8-0-8-8---0-0-8-0~-------|
G|-0-0--0-0--|---0-0-8-0-8-8---0-0-8-0-8-10---0-0-8-0-8-8---0-0-8-0~-------|
C|-0-0--0-0--|---0-0-8-0-8-8---0-0-8-0-8-10---0-0-8-0-8-8---0-0-8-0~-------|
PM . .  . .

Guitar 1 then plays something like this: (some kind of wah used)

This also could be octaves with the G string (ie 2 frets back) as it sounds as
more than one string is used. Either way is tremelo picked.

Tremelo pick the note an slowly bend it higher, then slide to the nxt correct note
whilest keeping the bend going.

D|------------------------------------------------------------------------|
A|------------------------------------------------------------------------|
F|-12b14----/16b17/17---17b18/18---18b19/19---19b21r19-------------------|
C|------------------------------------------------------------------------|
G|(slowly)--(slide during bend, repeat for each one)----------------------|
C|------------------------------------------------------------------------|

Guitar 2:
D|------------------------------------------------------------------------|
A|------------------------------------------------------------------------|
F|------------------------------------------------------------------------|
C|-0-0-8-0-8-8---0-0-8-0-8-10---0-0-8-0-8-8---0-0-8-0-8-10-0--10--0--8--0~|
G|-0-0-8-0-8-8---0-0-8-0-8-10---0-0-8-0-8-8---0-0-8-0-8-10-0--10--0--8--0~|
C|-0-0-8-0-8-8---0-0-8-0-8-10---0-0-8-0-8-8---0-0-8-0-8-10-0--10--0--8--0~|

Guitar 1: (uses some kind of volume swell here) (notes in brackets = optional) 
D|-(3~)------x------------------------------------------------------------|
A|-(3~)------x------------------------------------------------------------|
F|--7~-------12~-----12~--------------------------------------------------|
C|--5~-------10~-----12~--------------------------------------------------|
G|--3~-------7~------10~--------------------------------------------------|
C|--3~-------7~------10~--------------------------------------------------|

Repeat chorus 2 again.


Both Guitars end on these:
D|---10~-----------10~--------------------5~------------------------------|
A|---10~-----------10~--------------------5~------------------------------|
F|---10~-----------10~--------------------5~------------------------------|
C|---8~------------8~---------------------3~------------------------------|
G|---8~------------8~---------------------3~------------------------------|
C|---8~------------8~---------------------3~------------------------------|
Suggest correction
Creating personal tab
Creating personal tab
You can edit any tab online and save it as your Personal.

You can edit, replace or remove any tab part or add personal notes – all changes will be seen only by you.

Personal tabs can be accessed anytime from any device, even offline.
Learn more »
comments
print report bad tab
2 comments total.
0 reply
Scratchsniff 375 Aug 10, 2004 08:00 PM

Hey, whats the idea of ripping off my tab? this is posted on mxtabs, it is my tab, it took me fuking ages, ask permission b4 you take it ok??

Anyone looking at this tab and wanting a more up-to-date version, go to mxtabs, look at "wake up (make a move)" thats where the original is an it is 100% correct cos it is partly tabbed from a live vid - where you can see the fret board.....

0 reply
Astat 135 Oct 06, 2006 03:48 AM

Pretty good tab even if it is ripped off, Mxtabs is gone now so Scratchsniff's version can't be viewed there anymore anyway. Glad somebody besides me knows this song's in Drop C.

guest
Wanna post a correction for this tab? Suggest correction