Oops, an error
Loading. Please wait.

We Are Godzilla You Are Japan bass

version 2
version 2

Whole song

Interactive

2,783 views 1 this week
2 commentsread comments
1 2 3 4 5
x 7
add to favorites
×
Save as Personal and add changes to this tab that will be seen only by you. Learn more ›
×
You can save this tab as Personal to edit and correct it or add notes. All changes will be seen only by you. Learn more »
launch autoscroll
font size
0
reset
guitar tuner
edit
Autoscroll
slow
fast
+/-
esc
set tempo
stop
Author
INTRO

G|-----------------|
D|-----------------|
A|-----------------|
D|00-00-00-00------|

G|--------------------|
D|--------------------|x4
A|--------------------|
D|2-23-35-500000------|

G|-----------------------|
D|-----------------------|
A|-----------------------|
D|5-2~-------------------|

VERSE

G|------------------------------|
D|------------------------------|
A|------------------------------|x2
D|2-2-0-2--------55-55-00-00----|

G|------------------------------|
D|------------------------------|
A|------------------------------|
D|2-2-0-2—/14\------55-55-00-00-|

G|------------------------------|
D|------------------------------|
A|------------------------------|
D|2-2-0-2--------55-55-00-00----|

POST CHORUS

G|-------------------------------------------------|
D|-------------------------------------------------|
A|-------------------------------------------------|
D|22222222333333335555555500000000-----------------|


G|-------------------------------------------------|
D|-------------------------------------------------|
A|-------------------------------3-3-3-------------|
D|222222223333333355555555-------------000---------|

CHORUS

G|--------------------|
D|--------------------|x4
A|--------------------|
D|2-23-35-500000------|

VERSE

G|------------------------------|
D|------------------------------|
A|------------------------------|x2
D|2-2-0-2--------55-55-00-00----|

G|------------------------------|
D|------------------------------|
A|------------------------------|
D|2-2-0-2—/14\------55-55-00-00-|

G|------------------------------|
D|------------------------------|
A|------------------------------|
D|2-2-0-2--------55-55-00-00----|

POST CHORUS

G|-------------------------------------------------|
D|-------------------------------------------------|
A|-------------------------------------------------|
D|22222222333333335555555500000000-----------------|


G|-------------------------------------------------|
D|-------------------------------------------------|
A|-------------------------------3-3-3-------------|
D|222222223333333355555555-------------000---------|

CHORUS

G|--------------------|
D|--------------------|x4
A|--------------------|
D|2-23-35-500000------|

BRIDGE

G|--------------------|
D|--------------------|x11
A|--------------------|
D|-50000--------------|

G|--------------------|
D|--------------------|
A|--------------------|
D|-00-0-0-00----------|

G|-----------------|
D|-----------------|
A|-----------------|
D|00-00-00-00------|

G|--------------------|
D|--------------------|x2
A|--------------------|
D|2-23-35-5-0-0-0-----|

CHORUS

G|--------------------|
D|--------------------|x2
A|--------------------|
D|2-23-35-500000------|

OUTRO

G|-------------------------------------------------|
D|-------------------------------------------------|X4
A|-------------------------------------------------|
D|22222222333333335555555500000000-----------------|


G|--------------------|
D|--------------------|
A|--------------------|
D|-00-----------------|
First tab hope its ok.

Arron Owen.


            
            
Suggest correction
Creating personal tab
Creating personal tab
You can edit any tab online and save it as your Personal.

You can edit, replace or remove any tab part or add personal notes – all changes will be seen only by you.

Personal tabs can be accessed anytime from any device, even offline.
Learn more »
comments
print report bad tab
2 comments total.
0 reply
EmoBass 10 Oct 24, 2006 01:18 PM

Nice one, good tab. I'm not one to comment because I havent posted any but well done with this one. Good work and keep it up^^

0 reply
Spe-edS 10 Jun 14, 2007 02:05 PM

Everything is right cept that the pre chorus is labelled post chorus, and that in said riff, it should be three open A's not 3'rd frett.

guest
You may want to rate the tab now too:
select rating
Wanna post a correction for this tab? Suggest correction