Oops, an error
Loading. Please wait.

Well Bring An Arsenal bass

version 1
version 1

Whole song

Interactive

1,200 views 1 this week
no commentswrite comment
1 2 3 4 5
3 more votes to show rating
add to favorites
×
Save as Personal and add changes to this tab that will be seen only by you. Learn more ›
×
You can save this tab as Personal to edit and correct it or add notes. All changes will be seen only by you. Learn more »
launch autoscroll
font size
0
reset
guitar tuner
edit
Autoscroll
slow
fast
+/-
esc
set tempo
stop
Hey Guys! This is my tab to the song 'We Bring an Arsenal' by Lostprophets.
This song is played in dropped D. I hope it's correct.
Don't forget to rate!
Thx and enjoy! ;)

Intro (after 3 bars, then:)
G|------------|------------|------------|------------|------------|
D|------------|------------|------------|------------|------------|
A|------------|------------|4-----------|------------|------------|
D|------x-x-x-|8-8-8-8-8-8-|--6-6-6-6-6-|4-4-4-4-4-4-|1-1-1-1-1-1-|        
        E E E  E E E E E E  E E E E E E  E E E E E E  E E E E E E

G|------------|------------|------------|------------|
D|------------|------------|------------|------------|
A|------------|4-----------|------------|------------|
D|8-8-8-8-8-8-|--6-6-6-6-6-|--4--4--4---|--6--6--6---|
  E E E E E E  E E E E E E  E E. E. Q    E E. E. Q    

Fill 1
G|------------|
D|------------|
A|------------|
D|8~~~~~~~~~/0|
  H       E E

Verse 1
G|------------|------------|------------|
D|------------|------------|------------|
A|------------|------------|------------|
D|------------|------------|----------0/|
  H.           H.           H       E E

G|------------|------------|------------|------------|
D|------------|------------|------------|------------|
A|------------|4--4--4--4--|------------|6--6--6--6--|
D|8--8--8--8--|------------|4--4--4--4--|------------|
  E. E. E. E.  E. E. E. E.  E. E. E. E.  E. E. E. E.

G|------------|------------|------------|------------|
D|------------|------------|------------|------------|
A|------------|4--4--4--4--|------------|------------|
D|8--8--8--8--|------------|4--4--4--4--|1--1--1--1--|
  E. E. E. E.  E. E. E. E.  E. E. E. E.  E. E. E. E.

G|------------|------------|------------|------------|
D|------------|------------|4--4--4--4--|------------|
A|------------|4--4--4--4--|------------|6--6--6--6--|
D|8--8--8--8--|------------|------------|------------|
  E. E. E. E.  E. E. E. E.  E. E. E. E.  E. E. E. E.

Pre-Chorus
G|------------|------------|------------|------------|
D|------------|------------|------------|------------|
A|------------|------------|------------|------------|
D|4~~~~~~/16~~|~~~/4~~~~~~~|6--6--6--6--|7--7--7--7--|
  H       Q    Q   H        E. E. E. E.  E. E. E. E.

Chorus (quite the same as the Intro)                   \
G|------------|------------|------------|------------| |
D|------------|------------|------------|------------| |
A|------------|4-----------|------------|------------| |
D|8-8-8-8-8-8-|--6-6-6-6-6-|4-4-4-4-4-4-|1-1-1-1-1-1-| |
  E E E E E E  E E E E E E  E E E E E E  E E E E E E   \  2x
                                                       /  
G|------------|------------|------------|------------| | 
D|------------|------------|------------|------------| | 
A|------------|4-----------|------------|------------| |
D|8-8-8-8-8-8-|--6-6-6-6-6-|--4--4--4---|--6--6--6---| | 
  E E E E E E  E E E E E E  E E. E. Q    E E. E. Q     /

Pre-Verse
G|------------|------------|------------|------------|
D|------------|------------|------------|------------|
A|------------|------------|------------|------------|
D|8--8--------|4--4--------|6--6--------|2--2----8~~~|
  E. E. Q.     E. E. Q.     E. E. Q.     E. E. E Q

G|------------|------------|------------|------------|
D|------------|------------|------------|------------|
A|------------|------------|------------|------------|
D|8--8--------|4--4--------|6--6--------|7--7--------|
  E. E. Q.     E. E. Q.     E. E. Q.     E. E. Q.

Fill 2
G|------------|
D|------------|
A|------------|
D|8/0---------|
  E. E. Q

Verse 2
G|------------|------------|------------|------------|
D|------------|------------|------------|------------|
A|------------|4--4--4--4--|------------|------------|
D|/8-8--8--8--|------------|4--4--4--4--|1--1--1--1--|
  E. E. E. E.  E. E. E. E.  E. E. E. E.  E. E. E. E.

G|------------|------------|------------|------------|
D|------------|------------|------------|------------|
A|------------|4--4--4--4--|------------|6--6--6--6--|
D|8--8--8--8--|------------|4--4--4--4--|------------|
  E. E. E. E.  E. E. E. E.  E. E. E. E.  E. E. E. E.

G|------------|------------|------------|------------|
D|------------|------------|------------|------------|
A|------------|4--4--4--4--|------------|------------|
D|8--8--8--8--|------------|4--4--4--4--|1--1--1--1--|
  E. E. E. E.  E. E. E. E.  E. E. E. E.  E. E. E. E.

G|------------|------------|------------|------------|
D|------------|------------|4--4--4--4--|------------|
A|------------|4--4--4--4--|------------|6--6--6--6--|
D|8--8--8--8--|------------|------------|------------|
  E. E. E. E.  E. E. E. E.  E. E. E. E.  E. E. E. E.

Pre-Chorus
Chorus
Pre-Verse

Bridge
G|------------|------------|------------|------------|
D|------------|------------|------------|------------|
A|------------|------------|4-4-4-4-4-4-|4-4-4-4-4-4-|
D|8-8-8-8-8-8-|8-8-8-8-8-8-|------------|------------|
  E E E E E E  E E E E E E  E E E E E E  E E E E E E

G|------------|------------|------------|------------|
D|------------|------------|------------|------------|
A|------------|------------|------------|------------|
D|4-4-4-4-4-4-|4-4-4-4-4-4-|1-1-1-1-1-1-|1-1-1-1-1-1-|
  E E E E E E  E E E E E E  E E E E E E  E E E E E E 

G|------------|------------|------------|------------|
D|------------|------------|------------|------------|
A|------------|------------|4-4-4-4-4-4-|4-4-4-4-4-4-|
D|8-8-8-8-8-8-|8-8-8-8-8-8-|------------|------------|
  E E E E E E  E E E E E E  E E E E E E  E E E E E E

G|------------|------------|------------|------------|
D|------------|------------|------------|------------|
A|------------|------------|------------|------------|
D|4-4-4-4-4-4-|4-4-4-4-4-4-|1-1-1-1-1-1-|6-6-6-7-7-7-|
  E E E E E E  E E E E E E  E E E E E E  E E E E E E 

G|---|---|---|---|---|---|---|---|---|---|---|---|
D|---|---|---|---|---|---|---|---|---|---|---|---|
A|---|---|---|---|---|---|---|---|---|---|---|---|
D|8~~|~~~|~~~|8~~|~~~|~~~|8~~|~~~|~~~|---|---|---|
  H.  H.  H.  H.  H.  H.  H.  H.  H.  H.  H.  H.

Chorus Variation
G|------------|------------|------------|------------| 
D|------------|------------|------------|------------| 
A|------------|4-----------|------------|------------| 
D|8-8-8-8-8-8-|--6-6-6-6-6-|4-4-4-4-4-4-|1-1-1-1-1-1-| 
  E E E E E E  E E E E E E  E E E E E E  E E E E E E   

G|------------|------------|------------|------------|  
D|------------|------------|------------|------------|  
A|------------|4-----------|------------|------------| 
D|8-8-8-8-8-8-|--6-6-6-6-6-|4-4-4-4-4-4-|6-6-6-6-6-6-|  
  E E E E E E  E E E E E E  E E E E E E  E E E E E E     

G|------------|------------|------------|------------| 
D|------------|------------|------------|------------| 
A|------------|4-----------|------------|------------| 
D|8-8-8-8-8-8-|--6-6-6-6-6-|4-4-4-4-4-4-|1-1-1-1-1-1-| 
  E E E E E E  E E E E E E  E E E E E E  E E E E E E
                                                          
G|------------|------------|------------|------------|  
D|------------|------------|------------|------------|  
A|------------|4-----------|------------|------------| 
D|8-8-8-8-8-8-|--6-6-6-6-6-|4-4-4-1-1-1-|4-4-4-6-6-6-|  
  E E E E E E  E E E E E E  E E E E E E  E E E E E E     

G|------------|------------|------------|------------| 
D|------------|------------|------------|------------| 
A|------------|4-----------|------------|------------| 
D|8-8-8-8-8-8-|--6-6-6-6-6-|4-4-4-4-4-4-|1-1-1-1-1-1-| 
  E E E E E E  E E E E E E  E E E E E E  E E E E E E   

G|------------|------------|------------|------------|  
D|------------|------------|------------|------------|  
A|------------|4-----------|------------|------------| 
D|8-8-8-8-8-8-|--6-6-6-6-6-|4-4-4-4-4-4-|6-6-6-6-6-6-|  
  E E E E E E  E E E E E E  E E E E E E  E E E E E E    

Outro = Intro

Legend:
/ = Slide Up
\ = Slide Down
F = Full Note
H = Half Note
Q = Quarter Note
E = Eighth Note
S = Sixteenth Note
. = makes the note a half longer
Suggest correction
Creating personal tab
Creating personal tab
You can edit any tab online and save it as your Personal.

You can edit, replace or remove any tab part or add personal notes – all changes will be seen only by you.

Personal tabs can be accessed anytime from any device, even offline.
Learn more »
Give kudos to tab author, rate the tab!
1 2 3 4 5
comments
print report bad tab
guest
You may want to rate the tab now too:
select rating
Wanna post a correction for this tab? Suggest correction