Oops, an error
Loading. Please wait.

Colorado tab

version 1
version 1

Whole song

by Lotus
457 views 9 this week
1 commentread comment
1 2 3 4 5
1 last vote to show rating
add to favorites
×
Save as Personal and add changes to this tab that will be seen only by you. Learn more ›
×
You can save this tab as Personal to edit and correct it or add notes. All changes will be seen only by you. Learn more »
launch autoscroll
font size
0
reset
how to read this tab
guitar tuner
edit
Autoscroll
slow
fast
+/-
esc
set tempo
stop
Author
Difficulty
The song is divided into sections by those little breaks that they do, and so I’m
going to tab it like that.

If you listen to the song and look through the tab you’ll understand what I’m saying.

Rhythm Guitar Riff #1
e|-----------------------------------------------------------|
B|-----------------------------------------------------------|
G|--------4~~~~----------------------4~----------------------|
D|----4~~~~~6~~----2~~~~~~~\-----4~~~~~6~~----2~~/4~~~~~~~~~~|
A|-7~~~~7~~~~-7--4~~~~~~~~~\--7~~~~7~~~~~7--4~~~4/6~~~~~~~~~~|
E|-----------------------------------------------------7~~~~~|

e|-----------------------------------------------------------------|
B|-----------------------------------------------------------------|
G|--------4~-------------------------------------------------------|
D|----4~~~~~6--~~~~2~~~~~~~\----2----2h4~~~~~~~~~4h6~4\2~2~~~~~~~~~|
A|-7~~~~7~~~~-7--4~~~~~~~~~\--4---4--0~~~~~~~~~~~0~~~0~~~2~~~~~~~~~|
E|-----------------------------------------------------------0~~~~~|

Lead Guitar Comes In Around 0:29
e|-----------------------------------------------------|
B|--------------9-9-12-9---------9-10-12-9-------------|
G|-8/9-6-4----9----------9-9/11------------9-6-4-------|
D|-----------------------------------------------4/6---|
A|-----------------------------------------------------|
E|-----------------------------------------------------|

e|-----------------------------------------|
B|---9----12-9b^---------------------------|
G|-9-------------11-9----------------------|
D|-----11----------------------------------|
A|-----------------------------------------|
E|-----------------------------------------|

e|------------------16-16-19-16--------------------|
B|-16/17-14------17-------------17-17/19-----------|
G|----------16-------------------------------------|
D|-------------------------------------------------|
A|-------------------------------------------------|
E|-------------------------------------------------|

e|-16-17-19-16-------------------------------------|
B|-------------17-14-12--------12------------------|
G|----------------------11/13-----11b^-9-----------|
D|-------------------------------------------------|
A|-------------------------------------------------|
E|-------------------------------------------------|

Rhythm Guitar Part #2 Comes in around 1:23
e|-----------0--------------0--------------------|
B|-------------0--------------0------------------|
G|-----------------------------------------------|
D|---------7-----7—7/9--7-6-----6----------------|
A|---6h7-8---------9/11-9-7----------------------|
E|-7---------------------------------------------|

e|-----------0----------------------------------|
B|-------------0------------7-5-----------------|
G|-----------------7/9--7-6-----6-4-------------|
D|---------7-----7—9/11-9-7---------6-----------|
A|---6h7-8----------------------------7---------|
E|-7--------------------------------------------|

e|-----------0--------------0--------------------|
B|-------------0--------------0------------------|
G|-----------------7/9--7-6----------------------|
D|---------7-----7—9/11-9-7-----6----------------|
A|---6h7-8---------------------------------------|
E|-7---------------------------------------------|

e|-----------0-----------------------------------|
B|-------------0---------------------------------|
G|-----------------7/9--7-6----------------------|
D|---------7-----7—9/11-9-7----------------------|
A|---6h7-8---------------------------------------|
E|-7---------------------------------------------|


Lead comes in for the second part around 1:23
e|-10h11-12------14-16-12—--10h11-12-----12h14-16-19-----|
B|----------10-----------------------10------------------|
G|-------------------------------------------------------|
D|-------------------------------------------------------|
A|-------------------------------------------------------|
E|-------------------------------------------------------|

e|-10h11-12------14-16-12—--10h11-12--------------------|
B|----------10-----------------------10-----------------|
G|----------------------------------------13-11-9-------|
D|------------------------------------------------------|
A|------------------------------------------------------|
E|------------------------------------------------------|

After Break 2 the Rhythm plays this fill at 1:57
e|-----------------------------------------|
B|-----------------------------------------|
G|-----------------------------------------|
D|-----------------------------------------|
A|---------4-------------------------------|
E|-2/4-7-4---4-2/4-7-----------------------|

Right after that fill, the Rhythm Riff 1 Comes in again around 2:00 and goes until 2:58
e|-----------------------------------------------------------|
B|-----------------------------------------------------------|
G|--------4~~~~----------------------4~----------------------|
D|----4~~~~~6~~----2~~~~~~~\-----4~~~~~6~~----2~~/4~~~~~~~~~~|
A|-7~~~~7~~~~-7--4~~~~~~~~~\--7~~~~7~~~~~7--4~~~4/6~~~~~~~~~~|
E|-----------------------------------------------------7~~~~~|

e|-----------------------------------------------------------------|
B|-----------------------------------------------------------------|
G|--------4~-------------------------------------------------------|
D|----4~~~~~6--~~~~2~~~~~~~\----2----2h4~~~~~~~~~4h6~4\2~2~~~~~~~~~|
A|-7~~~~7~~~~-7--4~~~~~~~~~\--4---4--0~~~~~~~~~~~0~~~0~~~2~~~~~~~~~|
E|-----------------------------------------------------------0~~~~~|

Lead Guitar comes in around 2:01
e|---------------16-16-16-16-12----14-11-----------------|
B|------------------------------12-------12-10-9---------|
G|-----------------------------------------------9-8-9---|
D|-9h11-9----9-------------------------------------------|
A|--------11---------------------------------------------|
E|-------------------------------------------------------|


e|-16h17p16-14-16-14-12----11/12---------------|
B|----------------------12---------------------|
G|---------------------------------------------|
D|---------------------------------------------|
A|---------------------------------------------|
E|---------------------------------------------|

************************************

| h  Hammer-on
| p  Pull-off
| /  Slide up
| \  Slide down
| ~  Vibrato

************************************

Directly after this part (around 2:20) the lead guitar gets higher than my guitar can get
when tuned to standard, so maybe this is just an area where I don’t know enough
about guitars or perhaps he tunes his string up at some point to reach that high pitch.
Either way, I wanted to post what I had in case any of you may be able to add on or
answer that question.

Despite my OCD about doing such a thing, I may go ahead and just tab out the rest of the
song and leave out
the portions where his guitar pitch gets higher than I can get mine. But I figured I might
as well post what I got in the meantime.

            
            
Suggest correction
Creating personal tab
Creating personal tab
You can edit any tab online and save it as your Personal.

You can edit, replace or remove any tab part or add personal notes – all changes will be seen only by you.

Personal tabs can be accessed anytime from any device, even offline.
Learn more »
Give kudos to tab author, rate the tab!
1 2 3 4 5
comments
print report bad tab
1 comment total.
0 reply
nmhnmh 148 Nov 22, 2016 02:38 PM

This is excellent, thanks for taking the time to tab the whole thing out.

guest
You may want to rate the tab now too:
select rating
Wanna post a correction for this tab? Suggest correction