Oops, an error
Loading. Please wait.

Wooly Mammoth tab

by Lotus
800 views 3 this week
2 commentsread comments
1 2 3 4 5
2 more votes to show rating
add to favorites
×
Save as Personal and add changes to this tab that will be seen only by you. Learn more ›
×
You can save this tab as Personal to edit and correct it or add notes. All changes will be seen only by you. Learn more »
launch autoscroll
font size
0
reset
how to read this tab
guitar tuner
edit
Autoscroll
slow
fast
+/-
esc
set tempo
stop
Author
Artist: Lotus
Song: Wooly Mammoth
Album: Escaping Sargasso Sea

0:00
e|------------------------------------------------------|
B|------------------------------------------------------| 
G|--------------------------------------------------5---| x4
D|-5h7--5---5--5--5h7-7-7-7--5h7--5---5--5--5h7-7-7-----|
A|------------------------------------------------------|
E|------------------------------------------------------|

e|--------------------------------------------------------------------------|
B|--------------------------------8----6-----5-------8----6----5------------|
G|--------------------------5---7----7-----7---5---7----7----7---5--5-5/7-7-| x2
D|-5--5/7-7~~~--5--5/7-7~~~-------------------------------------------------|
A|--------------------------------------------------------------------------|
E|--------------------------------------------------------------------------|

0:43    
e|------------------------------------------------------|
B|------------------------------------------------------|
G|--------------------------------------------------5---| x2
D|-5h7--5---5--5--5h7-7-7-7--5h7--5---5--5--5h7-7-7-----|
A|------------------------------------------------------|
E|------------------------------------------------------|

e|------------------------------------------------------|
B|------------------------------------------------------|
G|------------------------5-------------------------5---|
D|-5h7--5---5--5--5h7-7-7----5h7--5---5--5--5h7-7-7-----|
A|------------------------------------------------------|
E|------------------------------------------------------|

e|------------------------------------------------------|
B|------------------------------------------------------|
G|--------------------------------------------------5---|
D|-5h7--5---5--5--5h7-7-7-7--5h7--5---5--5--5h7-7-7-----|
A|------------------------------------------------------|
E|------------------------------------------------------|

1:04
e|--------------------------------------------------------------------------|
B|--------------------------------8----6-----5-------8----6----5------------|
G|--------------------------5---7----7-----7---5---7----7----7---5--5-5/7-7-|
D|-5--5/7-7~~~--5--5/7-7~~~-------------------------------------------------|
A|--------------------------------------------------------------------------|
E|--------------------------------------------------------------------------|

e|----------------------------------------------|
B|----------------------------------------------|
G|-----------7-5--------------------7-5---------|
D|-5--5/7-7~~----7-5------5--5/7-7~~----7-5-----|
A|-------------------7----------------------7---|
E|----------------------------------------------|

e|----------------------------------------------------------------|
B|----------------------------------------------------------------|
G|-7-5---------5----------7-5------7-5----------------------------|
D|-----7-5-------7-5----------7--------7-5------5---------------5-|
A|---------7---------7-5-------------------7------7-5-5-5-5-5/7---|
E|----------------------------------------------------------------|

e|----------------------|
B|-----------8---6------|
G|-------------7-----5--|
D|-5--5/7-7~~-----------|
A|----------------------|
E|----------------------|
                
e|------------------------------------------------------------------------|
B|----------------------------6~~~~~~6~~~~6~~~~5~~~8~~~8~~~8~~~8~~~8~~~8~~|
G|------------5-5-5/7-7-7---7--7-7-7--7-7--7-7--7-7-7-7-7-7-7-7-7-7-7-7-7-|
D|-5--5/7-7~~-------------------------------------------------------------|
A|------------------------------------------------------------------------|
E|------------------------------------------------------------------------|

1:38
e|---------------------|
B|---------------------|
G|---------------------| x2
D|----------------8~~~-|
A|---------------------|
E|--6-6-6-6-6---6------|
        
e|-----------------------------------------------------------|
B|-----------------------------------------------------------|
G|-10p9p7--------------------5b7r5b7r5~~---------------------|
D|-------10p8p7----------------------------------5b7r5b7r5~~-|
A|-------------10p8p7-7~~~~--------------7~~~~---------------|
E|-----------------------------------------------------------|

e|---------------------|
B|---------------------|
G|---------------------| x2
D|----------------8~~~-|
A|---------------------|
E|--6-6-6-6-6---6------|

e|-----------------------------------------------------------|
B|-----------------------------------------------------------|
G|-10p9p7--------------------5b7r5b7r5~~---------------------|
D|-------10p8p7----------------------------------------------|
A|-------------10p8p7-7~~~~--------------7~~~~---7---8---10--|
E|-----------------------------------------------------------|

1:59
e|---------------------------------|
B|---------------------------------|
G|----------------------7!---5-----|
D|-7--7-----7-----7------------7-5-|
A|------8-----7-----5--------------|
E|---------------------------------|

e|----------------------------------|
B|----------------------------------|
G|----------------------------------|
D|--7-----7-----7-------------------|
A|-----8-----7-----5-----------3----|
E|----------------------3h5p3h5-----|

e|-------------------------------|
B|-------------------------------|
G|--------------------7!---5-----|
D|--7-----7-----7------------7-5-|
A|----8-----7-----5--------------|
E|-------------------------------|

e|----------------------------------|
B|----------------------------------|
G|----------------------------------|
D|--7-----7-----7-------------------|
A|-----8-----7-----5-----------3----|
E|----------------------3h5p3h5-----|


2:21
e|----------------------|
B|----------------------|
G|----------------------|
D|--8--8---7--7h8-------|
A|----------------8--7--|
E|----------------------|

e|--------------------------------------------|
B|--------------------------------------------|
G|--------------------------------------------|
D|--8--8---7--7h8-----------------------------|
A|----------------8--7---7~~/10--10--10-10-10-|
E|--------------------------------------------|

2:32
e|---------------------------------|
B|---------------------------------|
G|----------------------7!---5-----|
D|-7--7-----7-----7------------7-5-|
A|------8-----7-----5--------------|
E|---------------------------------|

e|----------------------------------|
B|----------------------------------|
G|----------------------------------|
D|--7-----7-----7-------------------|
A|-----8-----7-----5-----------3----|
E|----------------------3h5p3h5-----|

e|-------------------------------|
B|-------------------------------|
G|--------------------7!---5-----|
D|--7-----7-----7------------7-5-|
A|----8-----7-----5--------------|
E|-------------------------------|

e|----------------------------------|
B|----------------------------------|
G|----------------------------------|
D|--7-----7-----7-------------------|
A|-----8-----7-----5-----------3----|
E|----------------------3h5p3h5-----|


2:55
e|------------------------------------------------------|
B|------------------------------------------------------| 
G|--------------------------------------------------5---| x3
D|-5h7--5---5--5--5h7-7-7-7--5h7--5---5--5--5h7-7-7-----|
A|------------------------------------------------------|
E|------------------------------------------------------|

e|------------------------------------------------------------|
B|------------------------------------------------------------| 
G|------------------------------------------------------------|
D|-5h7--5---5--5--5h7-7-7-7--5h7--5---5--5--5h7-5h7-5h7~~~~~~~|
A|------------------------------------------------------------|
E|------------------------------------------------------------|


BREAK (w/Feedback)


3:37
e|-----------------------------------------------------------------------|
B|-----------------------------------------------------------------------| 
G|---b9r7p5---5----5/7-7/9-----b9r7p5---5----5/4-------------------------|
D|---------7----7--------------------7----7------5--------------5-7--5-7-|
A|---------------------------------------------------5-7--5-7------------|
E|-----------------------------------------------------------------------|

e|--------------------------------------------------------------------------|
B|--------------------------------------------------------------------------| 
G|-b9r7p5---5-------7/9-----b9r7p5---5----5-4-------------------------------|
D|-------7------7-----------------7-----7-----5--------------------5-7--5-7-|
A|-----------------------------------------------5/7-5---5-7--5-7-----------|
E|--------------------------------------------------------------------------|

4:00
e|--------------------------------------------------|
B|-------8--8-8--10----------8-8----10---12---8-----| 
G|--7/9-------------9---7--9-----9------------------|
D|--------------------------------------------------|
A|--------------------------------------------------|
E|--------------------------------------------------|

e|------------------------------------------------------|
B|-------8--8----10-----------------8-8----10---12---8--| 
G|--7-9-------9-----9----7--9-9-9-------9---------------|
D|------------------------------------------------------|
A|------------------------------------------------------|
E|------------------------------------------------------|

e|--------------------------------------------------------------|
B|-------------8-8---10-----------------------------------------|
G|--7h9p7h9-9--------------7--9----7--5-5/4--4--5--7-5--4h5p4---|
D|-----------------------------------------------------------5--|
A|--------------------------------------------------------------|
E|--------------------------------------------------------------|

e|----------------5---5-8--7-----8p7-----5--5/7-------------|
B|--------5---5-8-------------8-------8----------8---8h10---|
G|----4-5-------------------------------------------------9-|
D|--7-------------------------------------------------------|
A|----------------------------------------------------------|
E|----------------------------------------------------------|

e|----------------7-8-7--------------------------------------------------|
B|-8-------------x-------8-8-8-/10-10------------------------------------|
G|---9-7-9-7----x---------------------9-9-7-7-5-5-4--------4-4----5--5/7-|
D|-------------x---------------------------------------5-5-----5---------|
A|-----------------------------------------------------------------------|
E|-----------------------------------------------------------------------|

4:32
e|-------------------------------------------------------------------|
B|-------------------------------------------------------------------|
G|--9-9b10r9p7--9---7-9---7-9----9b10r9p7--9---7-9---7-99---7-10-----|
D|-------------------------------------------------------------------|
A|-------------------------------------------------------------------|
E|-------------------------------------------------------------------|

Solo continues > original riffs > another Rempel solo

[/] Slide Up
[h] Hammer On
[p] Pull Off
[!] Accent Note

            
            
Suggest correction
Creating personal tab
Creating personal tab
You can edit any tab online and save it as your Personal.

You can edit, replace or remove any tab part or add personal notes – all changes will be seen only by you.

Personal tabs can be accessed anytime from any device, even offline.
Learn more »
Give kudos to tab author, rate the tab!
1 2 3 4 5
comments
print report bad tab
2 comments total.
0 reply
bwren6080 10 Jun 08, 2016 10:25 PM

this is the best tab i've ever seen

guest
You may want to rate the tab now too:
select rating
Wanna post a correction for this tab? Suggest correction